  0
SECTION
  2
HEADER
  9
$ACADVER
  1
AC1027
  9
$ACADMAINTVER
 70
     8
  9
$DWGCODEPAGE
  3
ANSI_1252
  9
$REQUIREDVERSIONS
160
                 0
  9
$INSBASE
 10
0.0
 20
0.0
 30
0.0
  9
$EXTMIN
 10
1.000000000000000E+20
 20
1.000000000000000E+20
 30
1.000000000000000E+20
  9
$EXTMAX
 10
-1.000000000000000E+20
 20
-1.000000000000000E+20
 30
-1.000000000000000E+20
  9
$LIMMIN
 10
0.0
 20
0.0
  9
$LIMMAX
 10
12.0
 20
9.0
  9
$ORTHOMODE
 70
     0
  9
$REGENMODE
 70
     1
  9
$FILLMODE
 70
     1
  9
$QTEXTMODE
 70
     0
  9
$MIRRTEXT
 70
     1
  9
$LTSCALE
 40
1.0
  9
$ATTMODE
 70
     1
  9
$TEXTSIZE
 40
0.2
  9
$TRACEWID
 40
0.05
  9
$TEXTSTYLE
  7
Standard
  9
$CLAYER
  8
0
  9
$CELTYPE
  6
ByLayer
  9
$CECOLOR
 62
   178
  9
$CELTSCALE
 40
1.0
  9
$DISPSILH
 70
     0
  9
$DIMSCALE
 40
1.0
  9
$DIMASZ
 40
2.5
  9
$DIMEXO
 40
0.625
  9
$DIMDLI
 40
0.38
  9
$DIMRND
 40
0.0
  9
$DIMDLE
 40
0.0
  9
$DIMEXE
 40
1.25
  9
$DIMTP
 40
0.0
  9
$DIMTM
 40
0.0
  9
$DIMTXT
 40
2.5
  9
$DIMCEN
 40
0.09
  9
$DIMTSZ
 40
0.0
  9
$DIMTOL
 70
     0
  9
$DIMLIM
 70
     0
  9
$DIMTIH
 70
     1
  9
$DIMTOH
 70
     1
  9
$DIMSE1
 70
     0
  9
$DIMSE2
 70
     0
  9
$DIMTAD
 70
     0
  9
$DIMZIN
 70
     8
  9
$DIMBLK
  1

  9
$DIMASO
 70
     1
  9
$DIMSHO
 70
     1
  9
$DIMPOST
  1

  9
$DIMAPOST
  1

  9
$DIMALT
 70
     0
  9
$DIMALTD
 70
     2
  9
$DIMALTF
 40
25.4
  9
$DIMLFAC
 40
1.0
  9
$DIMTOFL
 70
     0
  9
$DIMTVP
 40
0.0
  9
$DIMTIX
 70
     0
  9
$DIMSOXD
 70
     0
  9
$DIMSAH
 70
     0
  9
$DIMBLK1
  1

  9
$DIMBLK2
  1

  9
$DIMSTYLE
  2
Standard
  9
$DIMCLRD
 70
   178
  9
$DIMCLRE
 70
   178
  9
$DIMCLRT
 70
   178
  9
$DIMTFAC
 40
1.0
  9
$DIMGAP
 40
0.625
  9
$DIMJUST
 70
     0
  9
$DIMSD1
 70
     0
  9
$DIMSD2
 70
     0
  9
$DIMTOLJ
 70
     1
  9
$DIMTZIN
 70
     0
  9
$DIMALTZ
 70
     0
  9
$DIMALTTZ
 70
     0
  9
$DIMUPT
 70
     0
  9
$DIMDEC
 70
     4
  9
$DIMTDEC
 70
     4
  9
$DIMALTU
 70
     2
  9
$DIMALTTD
 70
     2
  9
$DIMTXSTY
  7
Standard
  9
$DIMAUNIT
 70
     0
  9
$DIMADEC
 70
     0
  9
$DIMALTRND
 40
0.0
  9
$DIMAZIN
 70
     2
  9
$DIMDSEP
 70
    46
  9
$DIMATFIT
 70
     3
  9
$DIMFRAC
 70
     0
  9
$DIMLDRBLK
  1

  9
$DIMLUNIT
 70
     2
  9
$DIMLWD
 70
    -2
  9
$DIMLWE
 70
    -2
  9
$DIMTMOVE
 70
     0
  9
$DIMFXL
 40
1.0
  9
$DIMFXLON
 70
     0
  9
$DIMJOGANG
 40
0.7853981633974483
  9
$DIMTFILL
 70
     0
  9
$DIMTFILLCLR
 70
     0
  9
$DIMARCSYM
 70
     0
  9
$DIMLTYPE
  6

  9
$DIMLTEX1
  6

  9
$DIMLTEX2
  6

  9
$DIMTXTDIRECTION
 70
     0
  9
$LUNITS
 70
     2
  9
$LUPREC
 70
     4
  9
$SKETCHINC
 40
0.1
  9
$FILLETRAD
 40
0.5
  9
$AUNITS
 70
     0
  9
$AUPREC
 70
     0
  9
$MENU
  1
.
  9
$ELEVATION
 40
0.0
  9
$PELEVATION
 40
0.0
  9
$THICKNESS
 40
0.0
  9
$LIMCHECK
 70
     0
  9
$CHAMFERA
 40
0.0
  9
$CHAMFERB
 40
0.0
  9
$CHAMFERC
 40
0.0
  9
$CHAMFERD
 40
0.0
  9
$SKPOLY
 70
     0
  9
$TDCREATE
 40
2457446.533622685
  9
$TDUCREATE
 40
2457446.491956018
  9
$TDUPDATE
 40
2457446.533622685
  9
$TDUUPDATE
 40
2457446.491956018
  9
$TDINDWG
 40
0.0000000116
  9
$TDUSRTIMER
 40
0.0000000116
  9
$USRTIMER
 70
     1
  9
$ANGBASE
 50
0.0
  9
$ANGDIR
 70
     0
  9
$PDMODE
 70
     0
  9
$PDSIZE
 40
0.0
  9
$PLINEWID
 40
0.0
  9
$SPLFRAME
 70
     0
  9
$SPLINETYPE
 70
     6
  9
$SPLINESEGS
 70
     8
  9
$HANDSEED
  5
6E4
  9
$SURFTAB1
 70
     6
  9
$SURFTAB2
 70
     6
  9
$SURFTYPE
 70
     6
  9
$SURFU
 70
     6
  9
$SURFV
 70
     6
  9
$UCSBASE
  2

  9
$UCSNAME
  2

  9
$UCSORG
 10
0.0
 20
0.0
 30
0.0
  9
$UCSXDIR
 10
1.0
 20
0.0
 30
0.0
  9
$UCSYDIR
 10
0.0
 20
1.0
 30
0.0
  9
$UCSORTHOREF
  2

  9
$UCSORTHOVIEW
 70
     0
  9
$UCSORGTOP
 10
0.0
 20
0.0
 30
0.0
  9
$UCSORGBOTTOM
 10
0.0
 20
0.0
 30
0.0
  9
$UCSORGLEFT
 10
0.0
 20
0.0
 30
0.0
  9
$UCSORGRIGHT
 10
0.0
 20
0.0
 30
0.0
  9
$UCSORGFRONT
 10
0.0
 20
0.0
 30
0.0
  9
$UCSORGBACK
 10
0.0
 20
0.0
 30
0.0
  9
$PUCSBASE
  2

  9
$PUCSNAME
  2

  9
$PUCSORG
 10
0.0
 20
0.0
 30
0.0
  9
$PUCSXDIR
 10
1.0
 20
0.0
 30
0.0
  9
$PUCSYDIR
 10
0.0
 20
1.0
 30
0.0
  9
$PUCSORTHOREF
  2

  9
$PUCSORTHOVIEW
 70
     0
  9
$PUCSORGTOP
 10
0.0
 20
0.0
 30
0.0
  9
$PUCSORGBOTTOM
 10
0.0
 20
0.0
 30
0.0
  9
$PUCSORGLEFT
 10
0.0
 20
0.0
 30
0.0
  9
$PUCSORGRIGHT
 10
0.0
 20
0.0
 30
0.0
  9
$PUCSORGFRONT
 10
0.0
 20
0.0
 30
0.0
  9
$PUCSORGBACK
 10
0.0
 20
0.0
 30
0.0
  9
$USERI1
 70
     0
  9
$USERI2
 70
     0
  9
$USERI3
 70
     0
  9
$USERI4
 70
     0
  9
$USERI5
 70
     0
  9
$USERR1
 40
0.0
  9
$USERR2
 40
0.0
  9
$USERR3
 40
0.0
  9
$USERR4
 40
0.0
  9
$USERR5
 40
0.0
  9
$WORLDVIEW
 70
     1
  9
$SHADEDGE
 70
     3
  9
$SHADEDIF
 70
    70
  9
$TILEMODE
 70
     1
  9
$MAXACTVP
 70
     2
  9
$PINSBASE
 10
0.0
 20
0.0
 30
0.0
  9
$PLIMCHECK
 70
     0
  9
$PEXTMIN
 10
1.000000000000000E+20
 20
1.000000000000000E+20
 30
1.000000000000000E+20
  9
$PEXTMAX
 10
-1.000000000000000E+20
 20
-1.000000000000000E+20
 30
-1.000000000000000E+20
  9
$PLIMMIN
 10
0.0
 20
0.0
  9
$PLIMMAX
 10
12.0
 20
9.0
  9
$UNITMODE
 70
     0
  9
$VISRETAIN
 70
     1
  9
$PLINEGEN
 70
     0
  9
$PSLTSCALE
 70
     1
  9
$TREEDEPTH
 70
  3020
  9
$CMLSTYLE
  2
Standard
  9
$CMLJUST
 70
     0
  9
$CMLSCALE
 40
1.0
  9
$PROXYGRAPHICS
 70
     1
  9
$MEASUREMENT
 70
     1
  9
$CELWEIGHT
370
    -1
  9
$ENDCAPS
280
     0
  9
$JOINSTYLE
280
     0
  9
$LWDISPLAY
290
     0
  9
$INSUNITS
 70
     4
  9
$HYPERLINKBASE
  1

  9
$STYLESHEET
  1

  9
$XEDIT
290
     1
  9
$CEPSNTYPE
380
     0
  9
$PSTYLEMODE
290
     1
  9
$FINGERPRINTGUID
  2
{910C68B1-75F1-175B-B6E2-054B58827D9A}
  9
$VERSIONGUID
  2
{FAEB1C32-E019-11D5-929B-00C0DF256EC4}
  9
$EXTNAMES
290
     1
  9
$PSVPSCALE
 40
0.0
  9
$OLESTARTUP
290
     0
  9
$SORTENTS
280
   127
  9
$INDEXCTL
280
     0
  9
$HIDETEXT
280
     1
  9
$XCLIPFRAME
280
     2
  9
$HALOGAP
280
     0
  9
$OBSCOLOR
 70
   257
  9
$OBSLTYPE
280
     0
  9
$INTERSECTIONDISPLAY
280
     0
  9
$INTERSECTIONCOLOR
 70
   257
  9
$DIMASSOC
280
     2
  9
$PROJECTNAME
  1

  9
$CAMERADISPLAY
290
     0
  9
$LENSLENGTH
 40
50.0
  9
$CAMERAHEIGHT
 40
0.0
  9
$STEPSPERSEC
 40
2.0
  9
$STEPSIZE
 40
6.0
  9
$3DDWFPREC
 40
2.0
  9
$PSOLWIDTH
 40
0.25
  9
$PSOLHEIGHT
 40
4.0
  9
$LOFTANG1
 40
1.570796326794897
  9
$LOFTANG2
 40
1.570796326794897
  9
$LOFTMAG1
 40
0.0
  9
$LOFTMAG2
 40
0.0
  9
$LOFTPARAM
 70
     7
  9
$LOFTNORMALS
280
     1
  9
$LATITUDE
 40
37.795
  9
$LONGITUDE
 40
-122.394
  9
$NORTHDIRECTION
 40
0.0
  9
$TIMEZONE
 70
 -8000
  9
$LIGHTGLYPHDISPLAY
280
     1
  9
$TILEMODELIGHTSYNCH
280
     1
  9
$CMATERIAL
347
641
  9
$SOLIDHIST
280
     0
  9
$SHOWHIST
280
     1
  9
$DWFFRAME
280
     2
  9
$DGNFRAME
280
     2
  9
$REALWORLDSCALE
290
     1
  9
$INTERFERECOLOR
 62
   256
  9
$CSHADOW
280
     0
  9
$SHADOWPLANELOCATION
 40
0.0
  0
ENDSEC
  0
SECTION
  2
CLASSES
  0
CLASS
  1
ACDBDICTIONARYWDFLT
  2
AcDbDictionaryWithDefault
  3
ObjectDBX Classes
 90
        0
 91
        4
280
     0
281
     0
  0
CLASS
  1
VISUALSTYLE
  2
AcDbVisualStyle
  3
ObjectDBX Classes
 90
     4095
 91
        4
280
     0
281
     0
  0
CLASS
  1
MATERIAL
  2
AcDbMaterial
  3
ObjectDBX Classes
 90
     1153
 91
        4
280
     0
281
     0
  0
CLASS
  1
SCALE
  2
AcDbScale
  3
ObjectDBX Classes
 90
     1153
 91
        4
280
     0
281
     0
  0
CLASS
  1
TABLESTYLE
  2
AcDbTableStyle
  3
ObjectDBX Classes
 90
     4095
 91
        4
280
     0
281
     0
  0
CLASS
  1
MLEADERSTYLE
  2
AcDbMLeaderStyle
  3
ACDB_MLEADERSTYLE_CLASS
 90
     4095
 91
        4
280
     0
281
     0
  0
CLASS
  1
SUN
  2
AcDbSun
  3
SCENEOE
 90
     1153
 91
        4
280
     0
281
     0
  0
CLASS
  1
DICTIONARYVAR
  2
AcDbDictionaryVar
  3
ObjectDBX Classes
 90
        0
 91
        4
280
     0
281
     0
  0
CLASS
  1
CELLSTYLEMAP
  2
AcDbCellStyleMap
  3
ObjectDBX Classes
 90
     1152
 91
        4
280
     0
281
     0
  0
ENDSEC
  0
SECTION
  2
TABLES
  0
TABLE
  2
VPORT
  5
606
330
0
100
AcDbSymbolTable
 70
     1
  0
VPORT
  5
626
330
606
100
AcDbSymbolTableRecord
100
AcDbViewportTableRecord
  2
*Active
 70
     0
 10
0.0
 20
0.0
 11
1.0
 21
1.0
 12
10.42990654205607
 22
4.5
 13
0.0
 23
0.0
 14
0.5
 24
0.5
 15
0.5
 25
0.5
 16
0.0
 26
0.0
 36
1.0
 17
0.0
 27
0.0
 37
0.0
 40
9.0
 41
1.972972972850329
 42
50.0
 43
0.0
 44
0.0
 50
0.0
 51
0.0
 71
     0
 72
   100
 73
     1
 74
     3
 75
     0
 76
     0
 77
     0
 78
     0
281
     0
 65
     1
110
0.0
120
0.0
130
0.0
111
1.0
121
0.0
131
0.0
112
0.0
122
1.0
132
0.0
 79
     0
146
0.0
 60
     3
 61
     5
292
     1
282
     1
141
0.0
142
0.0
 63
   250
361
66A
  0
ENDTAB
  0
TABLE
  2
LTYPE
  5
603
330
0
100
AcDbSymbolTable
 70
    48
  0
LTYPE
  5
611
330
603
100
AcDbSymbolTableRecord
100
AcDbLinetypeTableRecord
  2
ByBlock
 70
     0
  3

 72
    65
 73
     0
 40
0.0
  0
LTYPE
  5
612
330
603
100
AcDbSymbolTableRecord
100
AcDbLinetypeTableRecord
  2
ByLayer
 70
     0
  3

 72
    65
 73
     0
 40
0.0
  0
LTYPE
  5
613
330
603
100
AcDbSymbolTableRecord
100
AcDbLinetypeTableRecord
  2
Continuous
 70
     0
  3
Solid line
 72
    65
 73
     0
 40
0.0
  0
LTYPE
  5
69E
330
603
100
AcDbSymbolTableRecord
100
AcDbLinetypeTableRecord
  2
ACAD_ISO02W100
 70
     0
  3
ISO dash __ __ __ __ __ __ __ __ __ __ __ __ __
 72
    65
 73
     2
 40
15.0
 49
12.0
 74
     0
 49
-3.0
 74
     0
  0
LTYPE
  5
69F
330
603
100
AcDbSymbolTableRecord
100
AcDbLinetypeTableRecord
  2
ACAD_ISO03W100
 70
     0
  3
ISO dash space __    __    __    __    __    __
 72
    65
 73
     2
 40
30.0
 49
12.0
 74
     0
 49
-18.0
 74
     0
  0
LTYPE
  5
6A0
330
603
100
AcDbSymbolTableRecord
100
AcDbLinetypeTableRecord
  2
ACAD_ISO04W100
 70
     0
  3
ISO long-dash dot ____ . ____ . ____ . ____ . _
 72
    65
 73
     4
 40
30.0
 49
24.0
 74
     0
 49
-3.0
 74
     0
 49
0.0
 74
     0
 49
-3.0
 74
     0
  0
LTYPE
  5
6A1
330
603
100
AcDbSymbolTableRecord
100
AcDbLinetypeTableRecord
  2
ACAD_ISO05W100
 70
     0
  3
ISO long-dash double-dot ____ .. ____ .. ____ . 
 72
    65
 73
     6
 40
33.0
 49
24.0
 74
     0
 49
-3.0
 74
     0
 49
0.0
 74
     0
 49
-3.0
 74
     0
 49
0.0
 74
     0
 49
-3.0
 74
     0
  0
LTYPE
  5
6A2
330
603
100
AcDbSymbolTableRecord
100
AcDbLinetypeTableRecord
  2
ACAD_ISO06W100
 70
     0
  3
ISO long-dash triple-dot ____ ... ____ ... ____
 72
    65
 73
     8
 40
36.0
 49
24.0
 74
     0
 49
-3.0
 74
     0
 49
0.0
 74
     0
 49
-3.0
 74
     0
 49
0.0
 74
     0
 49
-3.0
 74
     0
 49
0.0
 74
     0
 49
-3.0
 74
     0
  0
LTYPE
  5
6A3
330
603
100
AcDbSymbolTableRecord
100
AcDbLinetypeTableRecord
  2
ACAD_ISO07W100
 70
     0
  3
ISO dot . . . . . . . . . . . . . . . . . . . . 
 72
    65
 73
     2
 40
3.0
 49
0.0
 74
     0
 49
-3.0
 74
     0
  0
LTYPE
  5
6A4
330
603
100
AcDbSymbolTableRecord
100
AcDbLinetypeTableRecord
  2
ACAD_ISO08W100
 70
     0
  3
ISO long-dash short-dash ____ __ ____ __ ____ _
 72
    65
 73
     4
 40
36.0
 49
24.0
 74
     0
 49
-3.0
 74
     0
 49
6.0
 74
     0
 49
-3.0
 74
     0
  0
LTYPE
  5
6A5
330
603
100
AcDbSymbolTableRecord
100
AcDbLinetypeTableRecord
  2
ACAD_ISO09W100
 70
     0
  3
ISO long-dash double-short-dash ____ __ __ ____
 72
    65
 73
     6
 40
45.0
 49
24.0
 74
     0
 49
-3.0
 74
     0
 49
6.0
 74
     0
 49
-3.0
 74
     0
 49
6.0
 74
     0
 49
-3.0
 74
     0
  0
LTYPE
  5
6A6
330
603
100
AcDbSymbolTableRecord
100
AcDbLinetypeTableRecord
  2
ACAD_ISO10W100
 70
     0
  3
ISO dash dot __ . __ . __ . __ . __ . __ . __ . 
 72
    65
 73
     4
 40
18.0
 49
12.0
 74
     0
 49
-3.0
 74
     0
 49
0.0
 74
     0
 49
-3.0
 74
     0
  0
LTYPE
  5
6A7
330
603
100
AcDbSymbolTableRecord
100
AcDbLinetypeTableRecord
  2
ACAD_ISO11W100
 70
     0
  3
ISO double-dash dot __ __ . __ __ . __ __ . __ _
 72
    65
 73
     6
 40
33.0
 49
12.0
 74
     0
 49
-3.0
 74
     0
 49
12.0
 74
     0
 49
-3.0
 74
     0
 49
0.0
 74
     0
 49
-3.0
 74
     0
  0
LTYPE
  5
6A8
330
603
100
AcDbSymbolTableRecord
100
AcDbLinetypeTableRecord
  2
ACAD_ISO12W100
 70
     0
  3
ISO dash double-dot __ . . __ . . __ . . __ . . 
 72
    65
 73
     6
 40
21.0
 49
12.0
 74
     0
 49
-3.0
 74
     0
 49
0.0
 74
     0
 49
-3.0
 74
     0
 49
0.0
 74
     0
 49
-3.0
 74
     0
  0
LTYPE
  5
6A9
330
603
100
AcDbSymbolTableRecord
100
AcDbLinetypeTableRecord
  2
ACAD_ISO13W100
 70
     0
  3
ISO double-dash double-dot __ __ . . __ __ . . _
 72
    65
 73
     8
 40
36.0
 49
12.0
 74
     0
 49
-3.0
 74
     0
 49
12.0
 74
     0
 49
-3.0
 74
     0
 49
0.0
 74
     0
 49
-3.0
 74
     0
 49
0.0
 74
     0
 49
-3.0
 74
     0
  0
LTYPE
  5
6AA
330
603
100
AcDbSymbolTableRecord
100
AcDbLinetypeTableRecord
  2
ACAD_ISO14W100
 70
     0
  3
ISO dash triple-dot __ . . . __ . . . __ . . . _
 72
    65
 73
     8
 40
24.0
 49
12.0
 74
     0
 49
-3.0
 74
     0
 49
0.0
 74
     0
 49
-3.0
 74
     0
 49
0.0
 74
     0
 49
-3.0
 74
     0
 49
0.0
 74
     0
 49
-3.0
 74
     0
  0
LTYPE
  5
6AB
330
603
100
AcDbSymbolTableRecord
100
AcDbLinetypeTableRecord
  2
ACAD_ISO15W100
 70
     0
  3
ISO double-dash triple-dot __ __ . . . __ __ . .
 72
    65
 73
    10
 40
39.0
 49
12.0
 74
     0
 49
-3.0
 74
     0
 49
12.0
 74
     0
 49
-3.0
 74
     0
 49
0.0
 74
     0
 49
-3.0
 74
     0
 49
0.0
 74
     0
 49
-3.0
 74
     0
 49
0.0
 74
     0
 49
-3.0
 74
     0
  0
LTYPE
  5
6AE
330
603
100
AcDbSymbolTableRecord
100
AcDbLinetypeTableRecord
  2
BATTING
 70
     0
  3
Batting SSSSSSSSSSSSSSSSSSSSSSSSSSSSSSSSSSSSSSSSSSSSSSS
 72
    65
 73
     4
 40
10.16254
 49
0.00254
 74
     0
 49
-2.54
 74
     2
 75
     0
340
6AC
 46
2.54
 50
0.0
 44
-2.54
 45
0.0
  9
BAT
 49
-5.08
 74
     2
 75
     0
340
6AD
 46
2.54
 50
180.0
 44
2.54
 45
0.0
  9
BAT
 49
-2.54
 74
     0
  0
LTYPE
  5
6AF
330
603
100
AcDbSymbolTableRecord
100
AcDbLinetypeTableRecord
  2
BORDER
 70
     0
  3
Border __ __ . __ __ . __ __ . __ __ . __ __ .
 72
    65
 73
     6
 40
44.45
 49
12.7
 74
     0
 49
-6.35
 74
     0
 49
12.7
 74
     0
 49
-6.35
 74
     0
 49
0.0
 74
     0
 49
-6.35
 74
     0
  0
LTYPE
  5
6B0
330
603
100
AcDbSymbolTableRecord
100
AcDbLinetypeTableRecord
  2
BORDER2
 70
     0
  3
Border (.5x) __.__.__.__.__.__.__.__.__.__.__.
 72
    65
 73
     6
 40
22.225
 49
6.35
 74
     0
 49
-3.175
 74
     0
 49
6.35
 74
     0
 49
-3.175
 74
     0
 49
0.0
 74
     0
 49
-3.175
 74
     0
  0
LTYPE
  5
6B1
330
603
100
AcDbSymbolTableRecord
100
AcDbLinetypeTableRecord
  2
BORDERX2
 70
     0
  3
Border (2x) ____  ____  .  ____  ____  .  ___
 72
    65
 73
     6
 40
88.89999999999999
 49
25.4
 74
     0
 49
-12.7
 74
     0
 49
25.4
 74
     0
 49
-12.7
 74
     0
 49
0.0
 74
     0
 49
-12.7
 74
     0
  0
LTYPE
  5
6B2
330
603
100
AcDbSymbolTableRecord
100
AcDbLinetypeTableRecord
  2
CENTER
 70
     0
  3
Center ____ _ ____ _ ____ _ ____ _ ____ _ ____
 72
    65
 73
     4
 40
50.8
 49
31.75
 74
     0
 49
-6.35
 74
     0
 49
6.35
 74
     0
 49
-6.35
 74
     0
  0
LTYPE
  5
6B3
330
603
100
AcDbSymbolTableRecord
100
AcDbLinetypeTableRecord
  2
CENTER2
 70
     0
  3
Center (.5x) ___ _ ___ _ ___ _ ___ _ ___ _ ___
 72
    65
 73
     4
 40
28.575
 49
19.05
 74
     0
 49
-3.175
 74
     0
 49
3.175
 74
     0
 49
-3.175
 74
     0
  0
LTYPE
  5
6B4
330
603
100
AcDbSymbolTableRecord
100
AcDbLinetypeTableRecord
  2
CENTERX2
 70
     0
  3
Center (2x) ________  __  ________  __  _____
 72
    65
 73
     4
 40
101.6
 49
63.5
 74
     0
 49
-12.7
 74
     0
 49
12.7
 74
     0
 49
-12.7
 74
     0
  0
LTYPE
  5
6B5
330
603
100
AcDbSymbolTableRecord
100
AcDbLinetypeTableRecord
  2
DASHDOT
 70
     0
  3
Dash dot __ . __ . __ . __ . __ . __ . __ . __
 72
    65
 73
     4
 40
25.4
 49
12.7
 74
     0
 49
-6.35
 74
     0
 49
0.0
 74
     0
 49
-6.35
 74
     0
  0
LTYPE
  5
6B6
330
603
100
AcDbSymbolTableRecord
100
AcDbLinetypeTableRecord
  2
DASHDOT2
 70
     0
  3
Dash dot (.5x) _._._._._._._._._._._._._._._.
 72
    65
 73
     4
 40
12.7
 49
6.35
 74
     0
 49
-3.175
 74
     0
 49
0.0
 74
     0
 49
-3.175
 74
     0
  0
LTYPE
  5
6B7
330
603
100
AcDbSymbolTableRecord
100
AcDbLinetypeTableRecord
  2
DASHDOTX2
 70
     0
  3
Dash dot (2x) ____  .  ____  .  ____  .  ___
 72
    65
 73
     4
 40
50.8
 49
25.4
 74
     0
 49
-12.7
 74
     0
 49
0.0
 74
     0
 49
-12.7
 74
     0
  0
LTYPE
  5
6B8
330
603
100
AcDbSymbolTableRecord
100
AcDbLinetypeTableRecord
  2
DASHED
 70
     0
  3
Dashed __ __ __ __ __ __ __ __ __ __ __ __ __ _
 72
    65
 73
     2
 40
19.05
 49
12.7
 74
     0
 49
-6.35
 74
     0
  0
LTYPE
  5
6B9
330
603
100
AcDbSymbolTableRecord
100
AcDbLinetypeTableRecord
  2
DASHED2
 70
     0
  3
Dashed (.5x) _ _ _ _ _ _ _ _ _ _ _ _ _ _ _ _ _ 
 72
    65
 73
     2
 40
9.524999999999999
 49
6.35
 74
     0
 49
-3.175
 74
     0
  0
LTYPE
  5
6BA
330
603
100
AcDbSymbolTableRecord
100
AcDbLinetypeTableRecord
  2
DASHEDX2
 70
     0
  3
Dashed (2x) ____  ____  ____  ____  ____  ___
 72
    65
 73
     2
 40
38.09999999999999
 49
25.4
 74
     0
 49
-12.7
 74
     0
  0
LTYPE
  5
6BB
330
603
100
AcDbSymbolTableRecord
100
AcDbLinetypeTableRecord
  2
DIVIDE
 70
     0
  3
Divide ____ . . ____ . . ____ . . ____ . . ____
 72
    65
 73
     6
 40
31.75
 49
12.7
 74
     0
 49
-6.35
 74
     0
 49
0.0
 74
     0
 49
-6.35
 74
     0
 49
0.0
 74
     0
 49
-6.35
 74
     0
  0
LTYPE
  5
6BC
330
603
100
AcDbSymbolTableRecord
100
AcDbLinetypeTableRecord
  2
DIVIDE2
 70
     0
  3
Divide (.5x) __..__..__..__..__..__..__..__.._
 72
    65
 73
     6
 40
15.875
 49
6.35
 74
     0
 49
-3.175
 74
     0
 49
0.0
 74
     0
 49
-3.175
 74
     0
 49
0.0
 74
     0
 49
-3.175
 74
     0
  0
LTYPE
  5
6BD
330
603
100
AcDbSymbolTableRecord
100
AcDbLinetypeTableRecord
  2
DIVIDEX2
 70
     0
  3
Divide (2x) ________  .  .  ________  .  .  _
 72
    65
 73
     6
 40
63.5
 49
25.4
 74
     0
 49
-12.7
 74
     0
 49
0.0
 74
     0
 49
-12.7
 74
     0
 49
0.0
 74
     0
 49
-12.7
 74
     0
  0
LTYPE
  5
6BE
330
603
100
AcDbSymbolTableRecord
100
AcDbLinetypeTableRecord
  2
DOT
 70
     0
  3
Dot . . . . . . . . . . . . . . . . . . . . . . . .
 72
    65
 73
     2
 40
6.35
 49
0.0
 74
     0
 49
-6.35
 74
     0
  0
LTYPE
  5
6BF
330
603
100
AcDbSymbolTableRecord
100
AcDbLinetypeTableRecord
  2
DOT2
 70
     0
  3
Dot (.5x) ........................................
 72
    65
 73
     2
 40
3.175
 49
0.0
 74
     0
 49
-3.175
 74
     0
  0
LTYPE
  5
6C0
330
603
100
AcDbSymbolTableRecord
100
AcDbLinetypeTableRecord
  2
DOTX2
 70
     0
  3
Dot (2x) .  .  .  .  .  .  .  .  .  .  .  .  .  .
 72
    65
 73
     2
 40
12.7
 49
0.0
 74
     0
 49
-12.7
 74
     0
  0
LTYPE
  5
6C2
330
603
100
AcDbSymbolTableRecord
100
AcDbLinetypeTableRecord
  2
DRAINAGE
 70
     0
  3
Drainage ---->---->---->----
 72
    65
 73
     2
 40
10.16
 49
5.08
 74
     2
 75
     0
340
6C1
 46
2.54
 50
180.0
 44
0.0
 45
0.0
  9
RIGHT_ARROW
 49
5.08
 74
     0
  0
LTYPE
  5
6C4
330
603
100
AcDbSymbolTableRecord
100
AcDbLinetypeTableRecord
  2
DRAINAGE2
 70
     0
  3
Drainage reversed----<----<----<----
 72
    65
 73
     2
 40
10.16
 49
5.08
 74
     2
 75
     0
340
6C3
 46
2.54
 50
0.0
 44
0.0
 45
0.0
  9
RIGHT_ARROW
 49
5.08
 74
     0
  0
LTYPE
  5
6C6
330
603
100
AcDbSymbolTableRecord
100
AcDbLinetypeTableRecord
  2
FENCELINE1
 70
     0
  3
Fenceline circle ----0-----0----0-----0----0-----0--
 72
    65
 73
     4
 40
36.83
 49
6.35
 74
     0
 49
-2.54
 74
     2
 75
     0
340
6C5
 46
2.54
 50
0.0
 44
-2.54
 45
0.0
  9
CIRC1
 49
-2.54
 74
     0
 49
25.4
 74
     0
  0
LTYPE
  5
6C8
330
603
100
AcDbSymbolTableRecord
100
AcDbLinetypeTableRecord
  2
FENCELINE2
 70
     0
  3
Fenceline square ----[]-----[]----[]-----[]----[]---
 72
    65
 73
     4
 40
36.83
 49
6.35
 74
     0
 49
-2.54
 74
     2
 75
     0
340
6C7
 46
2.54
 50
0.0
 44
-2.54
 45
0.0
  9
BOX
 49
-2.54
 74
     0
 49
25.4
 74
     0
  0
LTYPE
  5
6CA
330
603
100
AcDbSymbolTableRecord
100
AcDbLinetypeTableRecord
  2
GAS_LINE
 70
     0
  3
Gas line ----GAS----GAS----GAS----GAS----GAS----GAS--
 72
    65
 73
     3
 40
24.13
 49
12.7
 74
     0
 49
-5.08
 74
     2
 75
     0
340
6C9
 46
2.54
 50
0.0
 44
-2.54
 45
-1.27
  9
GAS
 49
-6.35
 74
     0
  0
LTYPE
  5
6CB
330
603
100
AcDbSymbolTableRecord
100
AcDbLinetypeTableRecord
  2
HIDDEN
 70
     0
  3
Hidden __ __ __ __ __ __ __ __ __ __ __ __ __ __
 72
    65
 73
     2
 40
9.524999999999999
 49
6.35
 74
     0
 49
-3.175
 74
     0
  0
LTYPE
  5
6CC
330
603
100
AcDbSymbolTableRecord
100
AcDbLinetypeTableRecord
  2
HIDDEN2
 70
     0
  3
Hidden (.5x) _ _ _ _ _ _ _ _ _ _ _ _ _ _ _ _ _ 
 72
    65
 73
     2
 40
4.762499999999999
 49
3.175
 74
     0
 49
-1.5875
 74
     0
  0
LTYPE
  5
6CD
330
603
100
AcDbSymbolTableRecord
100
AcDbLinetypeTableRecord
  2
HIDDENX2
 70
     0
  3
Hidden (2x) ____ ____ ____ ____ ____ ____ ____ 
 72
    65
 73
     2
 40
19.05
 49
12.7
 74
     0
 49
-6.35
 74
     0
  0
LTYPE
  5
6CF
330
603
100
AcDbSymbolTableRecord
100
AcDbLinetypeTableRecord
  2
HOT_WATER_SUPPLY
 70
     0
  3
Hot water supply ---- HW ---- HW ---- HW ----
 72
    65
 73
     3
 40
22.86
 49
12.7
 74
     0
 49
-5.08
 74
     2
 75
     0
340
6CE
 46
2.54
 50
0.0
 44
-2.54
 45
-1.27
  9
HW
 49
-5.08
 74
     0
  0
LTYPE
  5
6D0
330
603
100
AcDbSymbolTableRecord
100
AcDbLinetypeTableRecord
  2
PHANTOM
 70
     0
  3
Phantom ______  __  __  ______  __  __  ______ 
 72
    65
 73
     6
 40
63.50000000000001
 49
31.75
 74
     0
 49
-6.35
 74
     0
 49
6.35
 74
     0
 49
-6.35
 74
     0
 49
6.35
 74
     0
 49
-6.35
 74
     0
  0
LTYPE
  5
6D1
330
603
100
AcDbSymbolTableRecord
100
AcDbLinetypeTableRecord
  2
PHANTOM2
 70
     0
  3
Phantom (.5x) ___ _ _ ___ _ _ ___ _ _ ___ _ _
 72
    65
 73
     6
 40
31.75
 49
15.875
 74
     0
 49
-3.175
 74
     0
 49
3.175
 74
     0
 49
-3.175
 74
     0
 49
3.175
 74
     0
 49
-3.175
 74
     0
  0
LTYPE
  5
6D2
330
603
100
AcDbSymbolTableRecord
100
AcDbLinetypeTableRecord
  2
PHANTOMX2
 70
     0
  3
Phantom (2x) ____________    ____    ____   _
 72
    65
 73
     6
 40
127.0
 49
63.5
 74
     0
 49
-12.7
 74
     0
 49
12.7
 74
     0
 49
-12.7
 74
     0
 49
12.7
 74
     0
 49
-12.7
 74
     0
  0
LTYPE
  5
6D4
330
603
100
AcDbSymbolTableRecord
100
AcDbLinetypeTableRecord
  2
TRACKS
 70
     0
  3
Tracks -|-|-|-|-|-|-|-|-|-|-|-|-|-|-|-|-|-|-|-|-|-|-|-|-
 72
    65
 73
     2
 40
7.62
 49
3.81
 74
     2
 75
     0
340
6D3
 46
6.35
 50
0.0
 44
0.0
 45
0.0
  9
TRACK1
 49
3.81
 74
     0
  0
LTYPE
  5
6D7
330
603
100
AcDbSymbolTableRecord
100
AcDbLinetypeTableRecord
  2
ZIGZAG
 70
     0
  3
Zig zag /\/\/\/\/\/\/\/\/\/\/\/\/\/\/\/\/\/\/\/\/\/\/\/
 72
    65
 73
     4
 40
20.32254
 49
0.00254
 74
     0
 49
-5.08
 74
     2
 75
     0
340
6D5
 46
5.08
 50
0.0
 44
-5.08
 45
0.0
  9
ZIG
 49
-10.16
 74
     2
 75
     0
340
6D6
 46
5.08
 50
180.0
 44
5.08
 45
0.0
  9
ZIG
 49
-5.08
 74
     0
  0
ENDTAB
  0
TABLE
  2
LAYER
  5
600
330
0
100
AcDbSymbolTable
 70
     4
  0
LAYER
  5
60E
330
600
100
AcDbSymbolTableRecord
100
AcDbLayerTableRecord
  2
0
 70
     0
 62
     7
420
 16777215
  6
Continuous
370
    25
390
60D
347
643
348
0
  0
LAYER
  5
6D8
330
600
100
AcDbSymbolTableRecord
100
AcDbLayerTableRecord
  2
Decoupe
 70
     0
 62
     7
420
 16777215
  6
Continuous
370
    25
390
60D
347
643
348
0
  0
LAYER
  5
6D9
330
600
100
AcDbSymbolTableRecord
100
AcDbLayerTableRecord
  2
Contour
 70
     0
 62
     1
420
 16711680
  6
Continuous
370
    25
390
60D
347
643
348
0
  0
LAYER
  5
6DA
330
600
100
AcDbSymbolTableRecord
100
AcDbLayerTableRecord
  2
Contraintes
 70
     0
 62
     2
420
 16776960
  6
ACAD_ISO07W100
370
    25
390
60D
347
643
348
0
  0
ENDTAB
  0
TABLE
  2
STYLE
  5
601
330
0
100
AcDbSymbolTable
 70
    13
  0
STYLE
  5
60F
330
601
100
AcDbSymbolTableRecord
100
AcDbTextStyleTableRecord
  2
Standard
 70
     0
 40
0.0
 41
1.0
 50
0.0
 71
     0
 42
0.2
  3
txt
  4

  0
STYLE
  5
69C
330
601
100
AcDbSymbolTableRecord
100
AcDbTextStyleTableRecord
  2
QCADDimTextStyle
 70
     0
 40
0.0
 41
1.0
 50
0.0
 71
     0
 42
0.2
  3

  4

  0
STYLE
  5
6AC
330
601
100
AcDbSymbolTableRecord
100
AcDbTextStyleTableRecord
  2
textstyle0
 70
     0
 40
0.0
 41
1.0
 50
0.0
 71
     0
 42
0.2
  3
ltypeshp.shx
  4

  0
STYLE
  5
6AD
330
601
100
AcDbSymbolTableRecord
100
AcDbTextStyleTableRecord
  2
textstyle1
 70
     0
 40
0.0
 41
1.0
 50
0.0
 71
     0
 42
0.2
  3
ltypeshp.shx
  4

  0
STYLE
  5
6C1
330
601
100
AcDbSymbolTableRecord
100
AcDbTextStyleTableRecord
  2
textstyle2
 70
     0
 40
0.0
 41
1.0
 50
0.0
 71
     0
 42
0.2
  3
qcadshp.shx
  4

  0
STYLE
  5
6C3
330
601
100
AcDbSymbolTableRecord
100
AcDbTextStyleTableRecord
  2
textstyle3
 70
     0
 40
0.0
 41
1.0
 50
0.0
 71
     0
 42
0.2
  3
qcadshp.shx
  4

  0
STYLE
  5
6C5
330
601
100
AcDbSymbolTableRecord
100
AcDbTextStyleTableRecord
  2
textstyle4
 70
     0
 40
0.0
 41
1.0
 50
0.0
 71
     0
 42
0.2
  3
ltypeshp.shx
  4

  0
STYLE
  5
6C7
330
601
100
AcDbSymbolTableRecord
100
AcDbTextStyleTableRecord
  2
textstyle5
 70
     0
 40
0.0
 41
1.0
 50
0.0
 71
     0
 42
0.2
  3
ltypeshp.shx
  4

  0
STYLE
  5
6C9
330
601
100
AcDbSymbolTableRecord
100
AcDbTextStyleTableRecord
  2
textstyle6
 70
     0
 40
0.0
 41
1.0
 50
0.0
 71
     0
 42
0.2
  3
STANDARD
  4

  0
STYLE
  5
6CE
330
601
100
AcDbSymbolTableRecord
100
AcDbTextStyleTableRecord
  2
textstyle7
 70
     0
 40
0.0
 41
1.0
 50
0.0
 71
     0
 42
0.2
  3
STANDARD
  4

  0
STYLE
  5
6D3
330
601
100
AcDbSymbolTableRecord
100
AcDbTextStyleTableRecord
  2
textstyle8
 70
     0
 40
0.0
 41
1.0
 50
0.0
 71
     0
 42
0.2
  3
ltypeshp.shx
  4

  0
STYLE
  5
6D5
330
601
100
AcDbSymbolTableRecord
100
AcDbTextStyleTableRecord
  2
textstyle9
 70
     0
 40
0.0
 41
1.0
 50
0.0
 71
     0
 42
0.2
  3
ltypeshp.shx
  4

  0
STYLE
  5
6D6
330
601
100
AcDbSymbolTableRecord
100
AcDbTextStyleTableRecord
  2
textstyle10
 70
     0
 40
0.0
 41
1.0
 50
0.0
 71
     0
 42
0.2
  3
ltypeshp.shx
  4

  0
ENDTAB
  0
TABLE
  2
VIEW
  5
604
330
0
100
AcDbSymbolTable
 70
     0
  0
ENDTAB
  0
TABLE
  2
UCS
  5
605
330
0
100
AcDbSymbolTable
 70
     0
  0
ENDTAB
  0
TABLE
  2
APPID
  5
607
330
0
100
AcDbSymbolTable
 70
     2
  0
APPID
  5
610
330
607
100
AcDbSymbolTableRecord
100
AcDbRegAppTableRecord
  2
ACAD
 70
     0
  0
APPID
  5
66B
330
607
100
AcDbSymbolTableRecord
100
AcDbRegAppTableRecord
  2
QCAD
 70
     0
  0
ENDTAB
  0
TABLE
  2
DIMSTYLE
  5
608
330
0
100
AcDbSymbolTable
 70
     2
100
AcDbDimStyleTable
  0
DIMSTYLE
105
624
330
608
100
AcDbSymbolTableRecord
100
AcDbDimStyleTableRecord
  2
Standard
 70
     0
178
     0
340
60F
  0
DIMSTYLE
105
69D
330
608
100
AcDbSymbolTableRecord
100
AcDbDimStyleTableRecord
  2
QCADDimStyle
 70
     0
 41
2.5
 42
0.625
 44
1.25
 73
     0
 77
     1
140
2.5
147
0.625
178
     0
340
69C
  0
ENDTAB
  0
TABLE
  2
BLOCK_RECORD
  5
5FF
330
0
100
AcDbSymbolTable
 70
     1
  0
BLOCK_RECORD
  5
61C
330
5FF
100
AcDbSymbolTableRecord
100
AcDbBlockTableRecord
  2
*Model_Space
340
61F
 70
     0
280
     1
281
     0
  0
BLOCK_RECORD
  5
618
330
5FF
100
AcDbSymbolTableRecord
100
AcDbBlockTableRecord
  2
*Paper_Space
340
61B
 70
     0
280
     1
281
     0
  0
BLOCK_RECORD
  5
620
330
5FF
100
AcDbSymbolTableRecord
100
AcDbBlockTableRecord
  2
*Paper_Space0
340
623
 70
     0
280
     1
281
     0
  0
ENDTAB
  0
ENDSEC
  0
SECTION
  2
BLOCKS
  0
BLOCK
  5
61D
330
61C
100
AcDbEntity
  8
0
100
AcDbBlockBegin
  2
*Model_Space
 70
     0
 10
0.0
 20
0.0
 30
0.0
  3
*Model_Space
  1
*Model_Space
  0
ENDBLK
  5
61E
330
61C
100
AcDbEntity
  8
0
100
AcDbBlockEnd
  0
BLOCK
  5
619
330
618
100
AcDbEntity
 67
     1
  8
0
100
AcDbBlockBegin
  2
*Paper_Space
 70
     0
 10
0.0
 20
0.0
 30
0.0
  3
*Paper_Space
  1
*Paper_Space
  0
ENDBLK
  5
61A
330
618
100
AcDbEntity
 67
     1
  8
0
100
AcDbBlockEnd
  0
BLOCK
  5
621
330
620
100
AcDbEntity
  8
0
100
AcDbBlockBegin
  2
*Paper_Space0
 70
     0
 10
0.0
 20
0.0
 30
0.0
  3
*Paper_Space0
  1
*Paper_Space0
  0
ENDBLK
  5
622
330
620
100
AcDbEntity
  8
0
100
AcDbBlockEnd
  0
ENDSEC
  0
SECTION
  2
ENTITIES
  0
LINE
  5
294
330
61C
100
AcDbEntity
  8
Decoupe
100
AcDbLine
 10
558.5
 20
-165.75
 30
0.0
 11
570.5
 21
-165.75
 31
0.0
  0
LINE
  5
295
330
61C
100
AcDbEntity
  8
Decoupe
100
AcDbLine
 10
490.5
 20
-165.75
 30
0.0
 11
502.5
 21
-165.75
 31
0.0
  0
LINE
  5
296
330
61C
100
AcDbEntity
  8
Decoupe
100
AcDbLine
 10
422.5
 20
-165.75
 30
0.0
 11
434.5
 21
-165.75
 31
0.0
  0
LINE
  5
297
330
61C
100
AcDbEntity
  8
Decoupe
100
AcDbLine
 10
354.5
 20
-165.75
 30
0.0
 11
366.5
 21
-165.75
 31
0.0
  0
LINE
  5
298
330
61C
100
AcDbEntity
  8
Decoupe
100
AcDbLine
 10
570.5
 20
-165.75
 30
0.0
 11
570.5
 21
-163.75
 31
0.0
  0
LINE
  5
299
330
61C
100
AcDbEntity
  8
Decoupe
100
AcDbLine
 10
502.5
 20
-165.75
 30
0.0
 11
502.5
 21
-163.75
 31
0.0
  0
LINE
  5
29A
330
61C
100
AcDbEntity
  8
Decoupe
100
AcDbLine
 10
434.5
 20
-165.75
 30
0.0
 11
434.5
 21
-163.75
 31
0.0
  0
LINE
  5
29B
330
61C
100
AcDbEntity
  8
Decoupe
100
AcDbLine
 10
366.5
 20
-165.75
 30
0.0
 11
366.5
 21
-163.75
 31
0.0
  0
LINE
  5
29C
330
61C
100
AcDbEntity
  8
Decoupe
100
AcDbLine
 10
570.5
 20
-163.75
 30
0.0
 11
558.5
 21
-163.75
 31
0.0
  0
LINE
  5
29D
330
61C
100
AcDbEntity
  8
Decoupe
100
AcDbLine
 10
502.5
 20
-163.75
 30
0.0
 11
490.5
 21
-163.75
 31
0.0
  0
LINE
  5
29E
330
61C
100
AcDbEntity
  8
Decoupe
100
AcDbLine
 10
434.5
 20
-163.75
 30
0.0
 11
422.5
 21
-163.75
 31
0.0
  0
LINE
  5
29F
330
61C
100
AcDbEntity
  8
Decoupe
100
AcDbLine
 10
366.5
 20
-163.75
 30
0.0
 11
354.5
 21
-163.75
 31
0.0
  0
LINE
  5
2A0
330
61C
100
AcDbEntity
  8
Decoupe
100
AcDbLine
 10
558.5
 20
-163.75
 30
0.0
 11
558.5
 21
-165.75
 31
0.0
  0
LINE
  5
2A1
330
61C
100
AcDbEntity
  8
Decoupe
100
AcDbLine
 10
490.5
 20
-163.75
 30
0.0
 11
490.5
 21
-165.75
 31
0.0
  0
LINE
  5
2A2
330
61C
100
AcDbEntity
  8
Decoupe
100
AcDbLine
 10
422.5
 20
-163.75
 30
0.0
 11
422.5
 21
-165.75
 31
0.0
  0
LINE
  5
2A3
330
61C
100
AcDbEntity
  8
Decoupe
100
AcDbLine
 10
354.5
 20
-163.75
 30
0.0
 11
354.5
 21
-165.75
 31
0.0
  0
LINE
  5
2A4
330
61C
100
AcDbEntity
  8
Decoupe
100
AcDbLine
 10
550.5
 20
-165.75
 30
0.0
 11
555.5
 21
-165.75
 31
0.0
  0
LINE
  5
2A5
330
61C
100
AcDbEntity
  8
Decoupe
100
AcDbLine
 10
482.5
 20
-165.75
 30
0.0
 11
487.5
 21
-165.75
 31
0.0
  0
LINE
  5
2A6
330
61C
100
AcDbEntity
  8
Decoupe
100
AcDbLine
 10
414.5
 20
-165.75
 30
0.0
 11
419.5
 21
-165.75
 31
0.0
  0
LINE
  5
2A7
330
61C
100
AcDbEntity
  8
Decoupe
100
AcDbLine
 10
346.5
 20
-165.75
 30
0.0
 11
351.5
 21
-165.75
 31
0.0
  0
LINE
  5
2A8
330
61C
100
AcDbEntity
  8
Decoupe
100
AcDbLine
 10
555.5
 20
-165.75
 30
0.0
 11
555.5
 21
-163.75
 31
0.0
  0
LINE
  5
2A9
330
61C
100
AcDbEntity
  8
Decoupe
100
AcDbLine
 10
487.5
 20
-165.75
 30
0.0
 11
487.5
 21
-163.75
 31
0.0
  0
LINE
  5
2AA
330
61C
100
AcDbEntity
  8
Decoupe
100
AcDbLine
 10
419.5
 20
-165.75
 30
0.0
 11
419.5
 21
-163.75
 31
0.0
  0
LINE
  5
2AB
330
61C
100
AcDbEntity
  8
Decoupe
100
AcDbLine
 10
351.5
 20
-165.75
 30
0.0
 11
351.5
 21
-163.75
 31
0.0
  0
LINE
  5
2AC
330
61C
100
AcDbEntity
  8
Decoupe
100
AcDbLine
 10
555.5
 20
-163.75
 30
0.0
 11
550.5
 21
-163.75
 31
0.0
  0
LINE
  5
2AD
330
61C
100
AcDbEntity
  8
Decoupe
100
AcDbLine
 10
487.5
 20
-163.75
 30
0.0
 11
482.5
 21
-163.75
 31
0.0
  0
LINE
  5
2AE
330
61C
100
AcDbEntity
  8
Decoupe
100
AcDbLine
 10
419.5
 20
-163.75
 30
0.0
 11
414.5
 21
-163.75
 31
0.0
  0
LINE
  5
2AF
330
61C
100
AcDbEntity
  8
Decoupe
100
AcDbLine
 10
351.5
 20
-163.75
 30
0.0
 11
346.5
 21
-163.75
 31
0.0
  0
LINE
  5
2B0
330
61C
100
AcDbEntity
  8
Decoupe
100
AcDbLine
 10
550.5
 20
-163.75
 30
0.0
 11
550.5
 21
-165.75
 31
0.0
  0
LINE
  5
2B1
330
61C
100
AcDbEntity
  8
Decoupe
100
AcDbLine
 10
482.5
 20
-163.75
 30
0.0
 11
482.5
 21
-165.75
 31
0.0
  0
LINE
  5
2B2
330
61C
100
AcDbEntity
  8
Decoupe
100
AcDbLine
 10
414.5
 20
-163.75
 30
0.0
 11
414.5
 21
-165.75
 31
0.0
  0
LINE
  5
2B3
330
61C
100
AcDbEntity
  8
Decoupe
100
AcDbLine
 10
346.5
 20
-163.75
 30
0.0
 11
346.5
 21
-165.75
 31
0.0
  0
LINE
  5
2B4
330
61C
100
AcDbEntity
  8
Decoupe
100
AcDbLine
 10
573.5
 20
-165.75
 30
0.0
 11
578.5
 21
-165.75
 31
0.0
  0
LINE
  5
2B5
330
61C
100
AcDbEntity
  8
Decoupe
100
AcDbLine
 10
505.5
 20
-165.75
 30
0.0
 11
510.5
 21
-165.75
 31
0.0
  0
LINE
  5
2B6
330
61C
100
AcDbEntity
  8
Decoupe
100
AcDbLine
 10
437.5
 20
-165.75
 30
0.0
 11
442.5
 21
-165.75
 31
0.0
  0
LINE
  5
2B7
330
61C
100
AcDbEntity
  8
Decoupe
100
AcDbLine
 10
369.5
 20
-165.75
 30
0.0
 11
374.5
 21
-165.75
 31
0.0
  0
LINE
  5
2B8
330
61C
100
AcDbEntity
  8
Decoupe
100
AcDbLine
 10
578.5
 20
-165.75
 30
0.0
 11
578.5
 21
-163.75
 31
0.0
  0
LINE
  5
2B9
330
61C
100
AcDbEntity
  8
Decoupe
100
AcDbLine
 10
510.5
 20
-165.75
 30
0.0
 11
510.5
 21
-163.75
 31
0.0
  0
LINE
  5
2BA
330
61C
100
AcDbEntity
  8
Decoupe
100
AcDbLine
 10
442.5
 20
-165.75
 30
0.0
 11
442.5
 21
-163.75
 31
0.0
  0
LINE
  5
2BB
330
61C
100
AcDbEntity
  8
Decoupe
100
AcDbLine
 10
374.5
 20
-165.75
 30
0.0
 11
374.5
 21
-163.75
 31
0.0
  0
LINE
  5
2C5
330
61C
100
AcDbEntity
  8
Decoupe
100
AcDbLine
 10
578.5
 20
-163.75
 30
0.0
 11
573.5
 21
-163.75
 31
0.0
  0
LINE
  5
2C6
330
61C
100
AcDbEntity
  8
Decoupe
100
AcDbLine
 10
510.5
 20
-163.75
 30
0.0
 11
505.5
 21
-163.75
 31
0.0
  0
LINE
  5
2C7
330
61C
100
AcDbEntity
  8
Decoupe
100
AcDbLine
 10
442.5
 20
-163.75
 30
0.0
 11
437.5
 21
-163.75
 31
0.0
  0
LINE
  5
2C8
330
61C
100
AcDbEntity
  8
Decoupe
100
AcDbLine
 10
374.5
 20
-163.75
 30
0.0
 11
369.5
 21
-163.75
 31
0.0
  0
LINE
  5
2D3
330
61C
100
AcDbEntity
  8
Decoupe
100
AcDbLine
 10
573.5
 20
-163.75
 30
0.0
 11
573.5
 21
-165.75
 31
0.0
  0
LINE
  5
2D4
330
61C
100
AcDbEntity
  8
Decoupe
100
AcDbLine
 10
505.5
 20
-163.75
 30
0.0
 11
505.5
 21
-165.75
 31
0.0
  0
LINE
  5
2D5
330
61C
100
AcDbEntity
  8
Decoupe
100
AcDbLine
 10
437.5
 20
-163.75
 30
0.0
 11
437.5
 21
-165.75
 31
0.0
  0
LINE
  5
2D6
330
61C
100
AcDbEntity
  8
Decoupe
100
AcDbLine
 10
369.5
 20
-163.75
 30
0.0
 11
369.5
 21
-165.75
 31
0.0
  0
CIRCLE
  5
34E
330
61C
100
AcDbEntity
  8
Decoupe
100
AcDbCircle
 10
502.0498992626026
 20
87.155531873178
 30
0.0
 40
1.1
  0
CIRCLE
  5
34D
330
61C
100
AcDbEntity
  8
Decoupe
100
AcDbCircle
 10
502.0498992626026
 20
-126.1500000010149
 30
0.0
 40
1.1
  0
CIRCLE
  5
350
330
61C
100
AcDbEntity
  8
Decoupe
100
AcDbCircle
 10
522.0498992626026
 20
87.15553187317798
 30
0.0
 40
1.1
  0
CIRCLE
  5
34F
330
61C
100
AcDbEntity
  8
Decoupe
100
AcDbCircle
 10
522.0498992626026
 20
-126.1500000010149
 30
0.0
 40
1.1
  0
LINE
  5
351
330
61C
100
AcDbEntity
  8
Decoupe
100
AcDbLine
 10
377.5
 20
-120.75
 30
0.0
 11
377.5
 21
-118.75
 31
0.0
  0
LINE
  5
352
330
61C
100
AcDbEntity
  8
Decoupe
100
AcDbLine
 10
343.5
 20
-120.75
 30
0.0
 11
343.5
 21
-118.75
 31
0.0
  0
LINE
  5
353
330
61C
100
AcDbEntity
  8
Decoupe
100
AcDbLine
 10
343.5
 20
-118.75
 30
0.0
 11
377.5
 21
-118.75
 31
0.0
  0
LINE
  5
354
330
61C
100
AcDbEntity
  8
Decoupe
100
AcDbLine
 10
343.5
 20
-120.75
 30
0.0
 11
377.5
 21
-120.75
 31
0.0
  0
LINE
  5
355
330
61C
100
AcDbEntity
  8
Contour
100
AcDbLine
 10
458.5
 20
207.75
 30
0.0
 11
534.5
 21
207.75
 31
0.0
  0
LINE
  5
356
330
61C
100
AcDbEntity
  8
Contour
100
AcDbLine
 10
534.5
 20
207.75
 30
0.0
 11
594.5
 21
207.75
 31
0.0
  0
LINE
  5
357
330
61C
100
AcDbEntity
  8
Decoupe
100
AcDbLine
 10
458.5
 20
12.75
 30
0.0
 11
461.5
 21
12.75
 31
0.0
  0
LINE
  5
358
330
61C
100
AcDbEntity
  8
Decoupe
100
AcDbLine
 10
531.5
 20
12.75
 30
0.0
 11
534.5
 21
12.75
 31
0.0
  0
LINE
  5
359
330
61C
100
AcDbEntity
  8
Decoupe
100
AcDbLine
 10
395.5
 20
12.75
 30
0.0
 11
398.5
 21
12.75
 31
0.0
  0
LINE
  5
35A
330
61C
100
AcDbEntity
  8
Decoupe
100
AcDbLine
 10
534.5
 20
-137.25
 30
0.0
 11
531.5
 21
-137.25
 31
0.0
  0
LINE
  5
35B
330
61C
100
AcDbEntity
  8
Decoupe
100
AcDbLine
 10
458.5
 20
-137.25
 30
0.0
 11
461.5
 21
-137.25
 31
0.0
  0
LINE
  5
35C
330
61C
100
AcDbEntity
  8
Contour
100
AcDbLine
 10
594.5
 20
-137.2500000000001
 30
0.0
 11
597.5
 21
-137.2500000000001
 31
0.0
  0
LINE
  5
35D
330
61C
100
AcDbEntity
  8
Decoupe
100
AcDbLine
 10
398.5
 20
-137.25
 30
0.0
 11
395.5
 21
-137.25
 31
0.0
  0
LINE
  5
35E
330
61C
100
AcDbEntity
  8
Contour
100
AcDbLine
 10
322.5
 20
-137.25
 30
0.0
 11
325.5
 21
-137.25
 31
0.0
  0
LINE
  5
35F
330
61C
100
AcDbEntity
  8
Decoupe
100
AcDbLine
 10
534.5
 20
-107.25
 30
0.0
 11
531.5
 21
-107.25
 31
0.0
  0
LINE
  5
360
330
61C
100
AcDbEntity
  8
Decoupe
100
AcDbLine
 10
458.5
 20
-107.25
 30
0.0
 11
461.5
 21
-107.25
 31
0.0
  0
LINE
  5
361
330
61C
100
AcDbEntity
  8
Contour
100
AcDbLine
 10
594.5
 20
-107.25
 30
0.0
 11
597.5
 21
-107.25
 31
0.0
  0
LINE
  5
362
330
61C
100
AcDbEntity
  8
Decoupe
100
AcDbLine
 10
398.5
 20
-107.25
 30
0.0
 11
395.5
 21
-107.25
 31
0.0
  0
LINE
  5
363
330
61C
100
AcDbEntity
  8
Contour
100
AcDbLine
 10
322.5
 20
-107.25
 30
0.0
 11
325.5
 21
-107.25
 31
0.0
  0
LINE
  5
364
330
61C
100
AcDbEntity
  8
Decoupe
100
AcDbLine
 10
534.5
 20
-77.25000000000001
 30
0.0
 11
531.5
 21
-77.25000000000001
 31
0.0
  0
LINE
  5
365
330
61C
100
AcDbEntity
  8
Decoupe
100
AcDbLine
 10
458.5
 20
-77.25000000000003
 30
0.0
 11
461.5
 21
-77.25000000000003
 31
0.0
  0
LINE
  5
366
330
61C
100
AcDbEntity
  8
Contour
100
AcDbLine
 10
594.5
 20
-77.25000000000004
 30
0.0
 11
597.5
 21
-77.25000000000004
 31
0.0
  0
LINE
  5
367
330
61C
100
AcDbEntity
  8
Decoupe
100
AcDbLine
 10
398.5
 20
-77.25000000000001
 30
0.0
 11
395.5
 21
-77.25000000000001
 31
0.0
  0
LINE
  5
368
330
61C
100
AcDbEntity
  8
Contour
100
AcDbLine
 10
322.5
 20
-77.25
 30
0.0
 11
325.5
 21
-77.25
 31
0.0
  0
LINE
  5
369
330
61C
100
AcDbEntity
  8
Decoupe
100
AcDbLine
 10
534.5
 20
-47.25
 30
0.0
 11
531.5
 21
-47.25
 31
0.0
  0
LINE
  5
36A
330
61C
100
AcDbEntity
  8
Decoupe
100
AcDbLine
 10
458.5
 20
-47.25000000000003
 30
0.0
 11
461.5
 21
-47.25000000000003
 31
0.0
  0
LINE
  5
36B
330
61C
100
AcDbEntity
  8
Contour
100
AcDbLine
 10
594.5
 20
-47.25000000000004
 30
0.0
 11
597.5
 21
-47.25000000000004
 31
0.0
  0
LINE
  5
36C
330
61C
100
AcDbEntity
  8
Decoupe
100
AcDbLine
 10
398.5
 20
-47.25
 30
0.0
 11
395.5
 21
-47.25
 31
0.0
  0
LINE
  5
36D
330
61C
100
AcDbEntity
  8
Contour
100
AcDbLine
 10
322.5
 20
-47.25
 30
0.0
 11
325.5
 21
-47.25
 31
0.0
  0
LINE
  5
36E
330
61C
100
AcDbEntity
  8
Decoupe
100
AcDbLine
 10
534.5
 20
-17.25000000000001
 30
0.0
 11
531.5
 21
-17.25000000000001
 31
0.0
  0
LINE
  5
36F
330
61C
100
AcDbEntity
  8
Decoupe
100
AcDbLine
 10
458.5
 20
-17.25000000000003
 30
0.0
 11
461.5
 21
-17.25000000000003
 31
0.0
  0
LINE
  5
370
330
61C
100
AcDbEntity
  8
Contour
100
AcDbLine
 10
594.5
 20
-17.25000000000004
 30
0.0
 11
597.5
 21
-17.25000000000004
 31
0.0
  0
LINE
  5
371
330
61C
100
AcDbEntity
  8
Decoupe
100
AcDbLine
 10
398.5
 20
-17.25000000000001
 30
0.0
 11
395.5
 21
-17.25000000000001
 31
0.0
  0
LINE
  5
372
330
61C
100
AcDbEntity
  8
Contour
100
AcDbLine
 10
322.5
 20
-17.25
 30
0.0
 11
325.5
 21
-17.25
 31
0.0
  0
LINE
  5
373
330
61C
100
AcDbEntity
  8
Contour
100
AcDbLine
 10
322.5
 20
12.75
 30
0.0
 11
325.5
 21
12.75
 31
0.0
  0
LINE
  5
374
330
61C
100
AcDbEntity
  8
Contour
100
AcDbLine
 10
398.5
 20
207.75
 30
0.0
 11
464.5
 21
207.75
 31
0.0
  0
LINE
  5
375
330
61C
100
AcDbEntity
  8
Contour
100
AcDbLine
 10
322.5
 20
207.75
 30
0.0
 11
398.5
 21
207.75
 31
0.0
  0
LINE
  5
376
330
61C
100
AcDbEntity
  8
Decoupe
100
AcDbLine
 10
531.5
 20
132.75
 30
0.0
 11
534.5
 21
132.75
 31
0.0
  0
LINE
  5
377
330
61C
100
AcDbEntity
  8
Decoupe
100
AcDbLine
 10
531.5
 20
102.75
 30
0.0
 11
534.5
 21
102.75
 31
0.0
  0
LINE
  5
378
330
61C
100
AcDbEntity
  8
Decoupe
100
AcDbLine
 10
531.5
 20
72.75
 30
0.0
 11
534.5
 21
72.75
 31
0.0
  0
LINE
  5
379
330
61C
100
AcDbEntity
  8
Decoupe
100
AcDbLine
 10
395.5
 20
72.75
 30
0.0
 11
398.5
 21
72.75
 31
0.0
  0
LINE
  5
37A
330
61C
100
AcDbEntity
  8
Decoupe
100
AcDbLine
 10
395.5
 20
102.75
 30
0.0
 11
398.5
 21
102.75
 31
0.0
  0
LINE
  5
37B
330
61C
100
AcDbEntity
  8
Decoupe
100
AcDbLine
 10
395.5
 20
132.75
 30
0.0
 11
398.5
 21
132.75
 31
0.0
  0
LINE
  5
37C
330
61C
100
AcDbEntity
  8
Decoupe
100
AcDbLine
 10
531.5
 20
192.75
 30
0.0
 11
534.5
 21
192.75
 31
0.0
  0
LINE
  5
37D
330
61C
100
AcDbEntity
  8
Decoupe
100
AcDbLine
 10
531.5
 20
162.75
 30
0.0
 11
534.5
 21
162.75
 31
0.0
  0
LINE
  5
37E
330
61C
100
AcDbEntity
  8
Decoupe
100
AcDbLine
 10
531.5
 20
42.75
 30
0.0
 11
534.5
 21
42.75
 31
0.0
  0
LINE
  5
37F
330
61C
100
AcDbEntity
  8
Decoupe
100
AcDbLine
 10
395.5
 20
42.75
 30
0.0
 11
398.5
 21
42.75
 31
0.0
  0
LINE
  5
380
330
61C
100
AcDbEntity
  8
Decoupe
100
AcDbLine
 10
395.5
 20
162.75
 30
0.0
 11
398.5
 21
162.75
 31
0.0
  0
LINE
  5
381
330
61C
100
AcDbEntity
  8
Decoupe
100
AcDbLine
 10
395.5
 20
192.75
 30
0.0
 11
398.5
 21
192.75
 31
0.0
  0
LINE
  5
382
330
61C
100
AcDbEntity
  8
Decoupe
100
AcDbLine
 10
534.5
 20
132.75
 30
0.0
 11
534.5
 21
147.75
 31
0.0
  0
LINE
  5
383
330
61C
100
AcDbEntity
  8
Decoupe
100
AcDbLine
 10
534.5
 20
102.75
 30
0.0
 11
534.5
 21
117.75
 31
0.0
  0
LINE
  5
384
330
61C
100
AcDbEntity
  8
Decoupe
100
AcDbLine
 10
534.5
 20
72.75
 30
0.0
 11
534.5
 21
87.75
 31
0.0
  0
LINE
  5
385
330
61C
100
AcDbEntity
  8
Decoupe
100
AcDbLine
 10
398.5
 20
72.75
 30
0.0
 11
398.5
 21
87.75
 31
0.0
  0
LINE
  5
386
330
61C
100
AcDbEntity
  8
Decoupe
100
AcDbLine
 10
398.5
 20
102.75
 30
0.0
 11
398.5
 21
117.75
 31
0.0
  0
LINE
  5
387
330
61C
100
AcDbEntity
  8
Decoupe
100
AcDbLine
 10
398.5
 20
132.75
 30
0.0
 11
398.5
 21
147.75
 31
0.0
  0
LINE
  5
388
330
61C
100
AcDbEntity
  8
Decoupe
100
AcDbLine
 10
534.5
 20
192.75
 30
0.0
 11
534.5
 21
207.75
 31
0.0
  0
LINE
  5
389
330
61C
100
AcDbEntity
  8
Decoupe
100
AcDbLine
 10
534.5
 20
162.75
 30
0.0
 11
534.5
 21
177.75
 31
0.0
  0
LINE
  5
38A
330
61C
100
AcDbEntity
  8
Decoupe
100
AcDbLine
 10
534.5
 20
42.75
 30
0.0
 11
534.5
 21
57.75
 31
0.0
  0
LINE
  5
38B
330
61C
100
AcDbEntity
  8
Decoupe
100
AcDbLine
 10
534.5
 20
12.75
 30
0.0
 11
534.5
 21
27.75
 31
0.0
  0
LINE
  5
38C
330
61C
100
AcDbEntity
  8
Decoupe
100
AcDbLine
 10
398.5
 20
12.75
 30
0.0
 11
398.5
 21
27.75
 31
0.0
  0
LINE
  5
38D
330
61C
100
AcDbEntity
  8
Decoupe
100
AcDbLine
 10
398.5
 20
42.75
 30
0.0
 11
398.5
 21
57.75
 31
0.0
  0
LINE
  5
38E
330
61C
100
AcDbEntity
  8
Decoupe
100
AcDbLine
 10
398.5
 20
162.75
 30
0.0
 11
398.5
 21
177.75
 31
0.0
  0
LINE
  5
38F
330
61C
100
AcDbEntity
  8
Decoupe
100
AcDbLine
 10
398.5
 20
192.75
 30
0.0
 11
398.5
 21
207.75
 31
0.0
  0
LINE
  5
390
330
61C
100
AcDbEntity
  8
Decoupe
100
AcDbLine
 10
534.5
 20
147.75
 30
0.0
 11
531.5
 21
147.75
 31
0.0
  0
LINE
  5
391
330
61C
100
AcDbEntity
  8
Decoupe
100
AcDbLine
 10
534.5
 20
117.75
 30
0.0
 11
531.5
 21
117.75
 31
0.0
  0
LINE
  5
392
330
61C
100
AcDbEntity
  8
Decoupe
100
AcDbLine
 10
534.5
 20
87.75
 30
0.0
 11
531.5
 21
87.75
 31
0.0
  0
LINE
  5
393
330
61C
100
AcDbEntity
  8
Decoupe
100
AcDbLine
 10
398.5
 20
87.75
 30
0.0
 11
395.5
 21
87.75
 31
0.0
  0
LINE
  5
394
330
61C
100
AcDbEntity
  8
Decoupe
100
AcDbLine
 10
398.5
 20
117.75
 30
0.0
 11
395.5
 21
117.75
 31
0.0
  0
LINE
  5
395
330
61C
100
AcDbEntity
  8
Decoupe
100
AcDbLine
 10
398.5
 20
147.75
 30
0.0
 11
395.5
 21
147.75
 31
0.0
  0
LINE
  5
396
330
61C
100
AcDbEntity
  8
Decoupe
100
AcDbLine
 10
534.5
 20
177.75
 30
0.0
 11
531.5
 21
177.75
 31
0.0
  0
LINE
  5
397
330
61C
100
AcDbEntity
  8
Decoupe
100
AcDbLine
 10
534.5
 20
57.75
 30
0.0
 11
531.5
 21
57.75
 31
0.0
  0
LINE
  5
398
330
61C
100
AcDbEntity
  8
Decoupe
100
AcDbLine
 10
534.5
 20
27.75
 30
0.0
 11
531.5
 21
27.75
 31
0.0
  0
LINE
  5
399
330
61C
100
AcDbEntity
  8
Decoupe
100
AcDbLine
 10
398.5
 20
27.75
 30
0.0
 11
395.5
 21
27.75
 31
0.0
  0
LINE
  5
39A
330
61C
100
AcDbEntity
  8
Decoupe
100
AcDbLine
 10
398.5
 20
57.75
 30
0.0
 11
395.5
 21
57.75
 31
0.0
  0
LINE
  5
39B
330
61C
100
AcDbEntity
  8
Decoupe
100
AcDbLine
 10
398.5
 20
177.75
 30
0.0
 11
395.5
 21
177.75
 31
0.0
  0
LINE
  5
39C
330
61C
100
AcDbEntity
  8
Decoupe
100
AcDbLine
 10
531.5
 20
132.75
 30
0.0
 11
531.5
 21
117.75
 31
0.0
  0
LINE
  5
39D
330
61C
100
AcDbEntity
  8
Decoupe
100
AcDbLine
 10
531.5
 20
102.75
 30
0.0
 11
531.5
 21
87.75
 31
0.0
  0
LINE
  5
39E
330
61C
100
AcDbEntity
  8
Decoupe
100
AcDbLine
 10
531.5
 20
72.75
 30
0.0
 11
531.5
 21
57.75
 31
0.0
  0
LINE
  5
39F
330
61C
100
AcDbEntity
  8
Decoupe
100
AcDbLine
 10
395.5
 20
72.75
 30
0.0
 11
395.5
 21
57.75
 31
0.0
  0
LINE
  5
3A0
330
61C
100
AcDbEntity
  8
Decoupe
100
AcDbLine
 10
395.5
 20
102.75
 30
0.0
 11
395.5
 21
87.75
 31
0.0
  0
LINE
  5
3A1
330
61C
100
AcDbEntity
  8
Decoupe
100
AcDbLine
 10
395.5
 20
132.75
 30
0.0
 11
395.5
 21
117.75
 31
0.0
  0
LINE
  5
3A2
330
61C
100
AcDbEntity
  8
Decoupe
100
AcDbLine
 10
531.5
 20
192.75
 30
0.0
 11
531.5
 21
177.75
 31
0.0
  0
LINE
  5
3A3
330
61C
100
AcDbEntity
  8
Decoupe
100
AcDbLine
 10
531.5
 20
162.75
 30
0.0
 11
531.5
 21
147.75
 31
0.0
  0
LINE
  5
3A4
330
61C
100
AcDbEntity
  8
Decoupe
100
AcDbLine
 10
531.5
 20
42.75
 30
0.0
 11
531.5
 21
27.75
 31
0.0
  0
LINE
  5
3A5
330
61C
100
AcDbEntity
  8
Decoupe
100
AcDbLine
 10
395.5
 20
42.75
 30
0.0
 11
395.5
 21
27.75
 31
0.0
  0
LINE
  5
3A6
330
61C
100
AcDbEntity
  8
Decoupe
100
AcDbLine
 10
395.5
 20
162.75
 30
0.0
 11
395.5
 21
147.75
 31
0.0
  0
LINE
  5
3A7
330
61C
100
AcDbEntity
  8
Decoupe
100
AcDbLine
 10
395.5
 20
192.75
 30
0.0
 11
395.5
 21
177.75
 31
0.0
  0
LINE
  5
3A8
330
61C
100
AcDbEntity
  8
Contour
100
AcDbLine
 10
594.5
 20
72.75
 30
0.0
 11
597.5
 21
72.75
 31
0.0
  0
LINE
  5
3A9
330
61C
100
AcDbEntity
  8
Contour
100
AcDbLine
 10
594.5
 20
102.75
 30
0.0
 11
597.5
 21
102.75
 31
0.0
  0
LINE
  5
3AA
330
61C
100
AcDbEntity
  8
Contour
100
AcDbLine
 10
594.5
 20
132.75
 30
0.0
 11
597.5
 21
132.75
 31
0.0
  0
LINE
  5
3AB
330
61C
100
AcDbEntity
  8
Decoupe
100
AcDbLine
 10
458.5
 20
132.75
 30
0.0
 11
461.5
 21
132.75
 31
0.0
  0
LINE
  5
3AC
330
61C
100
AcDbEntity
  8
Decoupe
100
AcDbLine
 10
458.5
 20
102.75
 30
0.0
 11
461.5
 21
102.75
 31
0.0
  0
LINE
  5
3AD
330
61C
100
AcDbEntity
  8
Decoupe
100
AcDbLine
 10
458.5
 20
72.75
 30
0.0
 11
461.5
 21
72.75
 31
0.0
  0
LINE
  5
3AE
330
61C
100
AcDbEntity
  8
Contour
100
AcDbLine
 10
322.5
 20
72.75
 30
0.0
 11
325.5
 21
72.75
 31
0.0
  0
LINE
  5
3AF
330
61C
100
AcDbEntity
  8
Contour
100
AcDbLine
 10
322.5
 20
102.75
 30
0.0
 11
325.5
 21
102.75
 31
0.0
  0
LINE
  5
3B0
330
61C
100
AcDbEntity
  8
Contour
100
AcDbLine
 10
322.5
 20
132.75
 30
0.0
 11
325.5
 21
132.75
 31
0.0
  0
LINE
  5
3B1
330
61C
100
AcDbEntity
  8
Decoupe
100
AcDbLine
 10
458.5
 20
192.75
 30
0.0
 11
461.5
 21
192.75
 31
0.0
  0
LINE
  5
3B2
330
61C
100
AcDbEntity
  8
Decoupe
100
AcDbLine
 10
458.5
 20
162.75
 30
0.0
 11
461.5
 21
162.75
 31
0.0
  0
LINE
  5
3B3
330
61C
100
AcDbEntity
  8
Decoupe
100
AcDbLine
 10
458.5
 20
42.75
 30
0.0
 11
461.5
 21
42.75
 31
0.0
  0
LINE
  5
3B4
330
61C
100
AcDbEntity
  8
Contour
100
AcDbLine
 10
594.5
 20
42.75
 30
0.0
 11
597.5
 21
42.75
 31
0.0
  0
LINE
  5
3B5
330
61C
100
AcDbEntity
  8
Contour
100
AcDbLine
 10
594.5
 20
192.75
 30
0.0
 11
597.5
 21
192.75
 31
0.0
  0
LINE
  5
3B6
330
61C
100
AcDbEntity
  8
Contour
100
AcDbLine
 10
594.5
 20
162.75
 30
0.0
 11
597.5
 21
162.75
 31
0.0
  0
LINE
  5
3B7
330
61C
100
AcDbEntity
  8
Contour
100
AcDbLine
 10
322.5
 20
42.75
 30
0.0
 11
325.5
 21
42.75
 31
0.0
  0
LINE
  5
3B8
330
61C
100
AcDbEntity
  8
Contour
100
AcDbLine
 10
322.5
 20
162.75
 30
0.0
 11
325.5
 21
162.75
 31
0.0
  0
LINE
  5
3B9
330
61C
100
AcDbEntity
  8
Contour
100
AcDbLine
 10
322.5
 20
192.75
 30
0.0
 11
325.5
 21
192.75
 31
0.0
  0
LINE
  5
3BA
330
61C
100
AcDbEntity
  8
Contour
100
AcDbLine
 10
597.5
 20
57.75
 30
0.0
 11
597.5
 21
72.75
 31
0.0
  0
LINE
  5
3BB
330
61C
100
AcDbEntity
  8
Contour
100
AcDbLine
 10
597.5
 20
87.75
 30
0.0
 11
597.5
 21
102.75
 31
0.0
  0
LINE
  5
3BC
330
61C
100
AcDbEntity
  8
Contour
100
AcDbLine
 10
597.5
 20
117.75
 30
0.0
 11
597.5
 21
132.75
 31
0.0
  0
LINE
  5
3BD
330
61C
100
AcDbEntity
  8
Decoupe
100
AcDbLine
 10
461.5
 20
117.75
 30
0.0
 11
461.5
 21
132.75
 31
0.0
  0
LINE
  5
3BE
330
61C
100
AcDbEntity
  8
Decoupe
100
AcDbLine
 10
461.5
 20
87.75
 30
0.0
 11
461.5
 21
102.75
 31
0.0
  0
LINE
  5
3BF
330
61C
100
AcDbEntity
  8
Decoupe
100
AcDbLine
 10
461.5
 20
57.75
 30
0.0
 11
461.5
 21
72.75
 31
0.0
  0
LINE
  5
3C0
330
61C
100
AcDbEntity
  8
Contour
100
AcDbLine
 10
325.5
 20
57.75
 30
0.0
 11
325.5
 21
72.75
 31
0.0
  0
LINE
  5
3C1
330
61C
100
AcDbEntity
  8
Contour
100
AcDbLine
 10
325.5
 20
87.75
 30
0.0
 11
325.5
 21
102.75
 31
0.0
  0
LINE
  5
3C2
330
61C
100
AcDbEntity
  8
Contour
100
AcDbLine
 10
325.5
 20
117.75
 30
0.0
 11
325.5
 21
132.75
 31
0.0
  0
LINE
  5
3C3
330
61C
100
AcDbEntity
  8
Decoupe
100
AcDbLine
 10
461.5
 20
147.75
 30
0.0
 11
461.5
 21
162.75
 31
0.0
  0
LINE
  5
3C4
330
61C
100
AcDbEntity
  8
Decoupe
100
AcDbLine
 10
461.5
 20
27.75
 30
0.0
 11
461.5
 21
42.75
 31
0.0
  0
LINE
  5
3C5
330
61C
100
AcDbEntity
  8
Contour
100
AcDbLine
 10
597.5
 20
27.75
 30
0.0
 11
597.5
 21
42.75
 31
0.0
  0
LINE
  5
3C6
330
61C
100
AcDbEntity
  8
Contour
100
AcDbLine
 10
597.5
 20
177.75
 30
0.0
 11
597.5
 21
192.75
 31
0.0
  0
LINE
  5
3C7
330
61C
100
AcDbEntity
  8
Contour
100
AcDbLine
 10
597.5
 20
147.75
 30
0.0
 11
597.5
 21
162.75
 31
0.0
  0
LINE
  5
3C8
330
61C
100
AcDbEntity
  8
Decoupe
100
AcDbLine
 10
461.5
 20
177.75
 30
0.0
 11
461.5
 21
192.75
 31
0.0
  0
LINE
  5
3C9
330
61C
100
AcDbEntity
  8
Decoupe
100
AcDbLine
 10
531.5
 20
-122.25
 30
0.0
 11
531.5
 21
-107.25
 31
0.0
  0
LINE
  5
3CA
330
61C
100
AcDbEntity
  8
Decoupe
100
AcDbLine
 10
461.5
 20
-122.25
 30
0.0
 11
461.5
 21
-107.25
 31
0.0
  0
LINE
  5
3CB
330
61C
100
AcDbEntity
  8
Contour
100
AcDbLine
 10
597.5
 20
-122.2500000000001
 30
0.0
 11
597.5
 21
-107.25
 31
0.0
  0
LINE
  5
3CC
330
61C
100
AcDbEntity
  8
Decoupe
100
AcDbLine
 10
395.5
 20
-122.25
 30
0.0
 11
395.5
 21
-107.25
 31
0.0
  0
LINE
  5
3CD
330
61C
100
AcDbEntity
  8
Contour
100
AcDbLine
 10
325.5
 20
-122.25
 30
0.0
 11
325.5
 21
-107.25
 31
0.0
  0
LINE
  5
3CE
330
61C
100
AcDbEntity
  8
Decoupe
100
AcDbLine
 10
531.5
 20
-92.25
 30
0.0
 11
531.5
 21
-77.25000000000001
 31
0.0
  0
LINE
  5
3CF
330
61C
100
AcDbEntity
  8
Decoupe
100
AcDbLine
 10
461.5
 20
-92.25
 30
0.0
 11
461.5
 21
-77.25000000000003
 31
0.0
  0
LINE
  5
3D0
330
61C
100
AcDbEntity
  8
Contour
100
AcDbLine
 10
597.5
 20
-92.25
 30
0.0
 11
597.5
 21
-77.25000000000004
 31
0.0
  0
LINE
  5
3D1
330
61C
100
AcDbEntity
  8
Decoupe
100
AcDbLine
 10
395.5
 20
-92.25
 30
0.0
 11
395.5
 21
-77.25000000000001
 31
0.0
  0
LINE
  5
3D2
330
61C
100
AcDbEntity
  8
Contour
100
AcDbLine
 10
325.5
 20
-92.25
 30
0.0
 11
325.5
 21
-77.25
 31
0.0
  0
LINE
  5
3D3
330
61C
100
AcDbEntity
  8
Decoupe
100
AcDbLine
 10
531.5
 20
-62.25000000000001
 30
0.0
 11
531.5
 21
-47.25
 31
0.0
  0
LINE
  5
3D4
330
61C
100
AcDbEntity
  8
Decoupe
100
AcDbLine
 10
461.5
 20
-62.25000000000003
 30
0.0
 11
461.5
 21
-47.25000000000003
 31
0.0
  0
LINE
  5
3D5
330
61C
100
AcDbEntity
  8
Contour
100
AcDbLine
 10
597.5
 20
-62.25000000000004
 30
0.0
 11
597.5
 21
-47.25000000000004
 31
0.0
  0
LINE
  5
3D6
330
61C
100
AcDbEntity
  8
Decoupe
100
AcDbLine
 10
395.5
 20
-62.25000000000001
 30
0.0
 11
395.5
 21
-47.25
 31
0.0
  0
LINE
  5
3D7
330
61C
100
AcDbEntity
  8
Contour
100
AcDbLine
 10
325.5
 20
-62.25
 30
0.0
 11
325.5
 21
-47.25
 31
0.0
  0
LINE
  5
3D8
330
61C
100
AcDbEntity
  8
Decoupe
100
AcDbLine
 10
531.5
 20
-32.25000000000001
 30
0.0
 11
531.5
 21
-17.25000000000001
 31
0.0
  0
LINE
  5
3D9
330
61C
100
AcDbEntity
  8
Decoupe
100
AcDbLine
 10
461.5
 20
-32.25000000000003
 30
0.0
 11
461.5
 21
-17.25000000000003
 31
0.0
  0
LINE
  5
3DA
330
61C
100
AcDbEntity
  8
Contour
100
AcDbLine
 10
597.5
 20
-32.25000000000004
 30
0.0
 11
597.5
 21
-17.25000000000004
 31
0.0
  0
LINE
  5
3DB
330
61C
100
AcDbEntity
  8
Decoupe
100
AcDbLine
 10
395.5
 20
-32.25000000000001
 30
0.0
 11
395.5
 21
-17.25000000000001
 31
0.0
  0
LINE
  5
3DC
330
61C
100
AcDbEntity
  8
Contour
100
AcDbLine
 10
325.5
 20
-32.25
 30
0.0
 11
325.5
 21
-17.25
 31
0.0
  0
LINE
  5
3DD
330
61C
100
AcDbEntity
  8
Decoupe
100
AcDbLine
 10
531.5
 20
-2.250000000000011
 30
0.0
 11
531.5
 21
12.75
 31
0.0
  0
LINE
  5
3DE
330
61C
100
AcDbEntity
  8
Decoupe
100
AcDbLine
 10
461.5
 20
-2.250000000000028
 30
0.0
 11
461.5
 21
12.75
 31
0.0
  0
LINE
  5
3DF
330
61C
100
AcDbEntity
  8
Contour
100
AcDbLine
 10
597.5
 20
-2.250000000000043
 30
0.0
 11
597.5
 21
12.75000000000001
 31
0.0
  0
LINE
  5
3E0
330
61C
100
AcDbEntity
  8
Decoupe
100
AcDbLine
 10
395.5
 20
-2.250000000000011
 30
0.0
 11
395.5
 21
12.75
 31
0.0
  0
LINE
  5
3E1
330
61C
100
AcDbEntity
  8
Contour
100
AcDbLine
 10
325.5
 20
-2.25
 30
0.0
 11
325.5
 21
12.75
 31
0.0
  0
LINE
  5
3E2
330
61C
100
AcDbEntity
  8
Contour
100
AcDbLine
 10
325.5
 20
27.75
 30
0.0
 11
325.5
 21
42.75
 31
0.0
  0
LINE
  5
3E3
330
61C
100
AcDbEntity
  8
Contour
100
AcDbLine
 10
325.5
 20
147.75
 30
0.0
 11
325.5
 21
162.75
 31
0.0
  0
LINE
  5
3E4
330
61C
100
AcDbEntity
  8
Contour
100
AcDbLine
 10
325.5
 20
177.75
 30
0.0
 11
325.5
 21
192.75
 31
0.0
  0
LINE
  5
3E5
330
61C
100
AcDbEntity
  8
Contour
100
AcDbLine
 10
597.5
 20
87.75
 30
0.0
 11
594.5
 21
87.75
 31
0.0
  0
LINE
  5
3E6
330
61C
100
AcDbEntity
  8
Contour
100
AcDbLine
 10
597.5
 20
117.75
 30
0.0
 11
594.5
 21
117.75
 31
0.0
  0
LINE
  5
3E7
330
61C
100
AcDbEntity
  8
Contour
100
AcDbLine
 10
597.5
 20
147.75
 30
0.0
 11
594.5
 21
147.75
 31
0.0
  0
LINE
  5
3E8
330
61C
100
AcDbEntity
  8
Decoupe
100
AcDbLine
 10
461.5
 20
147.75
 30
0.0
 11
458.5
 21
147.75
 31
0.0
  0
LINE
  5
3E9
330
61C
100
AcDbEntity
  8
Decoupe
100
AcDbLine
 10
461.5
 20
117.75
 30
0.0
 11
458.5
 21
117.75
 31
0.0
  0
LINE
  5
3EA
330
61C
100
AcDbEntity
  8
Decoupe
100
AcDbLine
 10
461.5
 20
87.75
 30
0.0
 11
458.5
 21
87.75
 31
0.0
  0
LINE
  5
3EB
330
61C
100
AcDbEntity
  8
Contour
100
AcDbLine
 10
325.5
 20
87.75
 30
0.0
 11
322.5
 21
87.75
 31
0.0
  0
LINE
  5
3EC
330
61C
100
AcDbEntity
  8
Contour
100
AcDbLine
 10
325.5
 20
117.75
 30
0.0
 11
322.5
 21
117.75
 31
0.0
  0
LINE
  5
3ED
330
61C
100
AcDbEntity
  8
Contour
100
AcDbLine
 10
325.5
 20
147.75
 30
0.0
 11
322.5
 21
147.75
 31
0.0
  0
LINE
  5
3EE
330
61C
100
AcDbEntity
  8
Contour
100
AcDbLine
 10
597.5
 20
27.75
 30
0.0
 11
594.5
 21
27.75
 31
0.0
  0
LINE
  5
3EF
330
61C
100
AcDbEntity
  8
Contour
100
AcDbLine
 10
597.5
 20
177.75
 30
0.0
 11
594.5
 21
177.75
 31
0.0
  0
LINE
  5
3F0
330
61C
100
AcDbEntity
  8
Contour
100
AcDbLine
 10
597.5
 20
57.75
 30
0.0
 11
594.5
 21
57.75
 31
0.0
  0
LINE
  5
3F1
330
61C
100
AcDbEntity
  8
Decoupe
100
AcDbLine
 10
461.5
 20
57.75
 30
0.0
 11
458.5
 21
57.75
 31
0.0
  0
LINE
  5
3F2
330
61C
100
AcDbEntity
  8
Decoupe
100
AcDbLine
 10
461.5
 20
177.75
 30
0.0
 11
458.5
 21
177.75
 31
0.0
  0
LINE
  5
3F3
330
61C
100
AcDbEntity
  8
Decoupe
100
AcDbLine
 10
461.5
 20
27.75
 30
0.0
 11
458.5
 21
27.75
 31
0.0
  0
LINE
  5
3F4
330
61C
100
AcDbEntity
  8
Decoupe
100
AcDbLine
 10
531.5
 20
-122.25
 30
0.0
 11
534.5
 21
-122.25
 31
0.0
  0
LINE
  5
3F5
330
61C
100
AcDbEntity
  8
Decoupe
100
AcDbLine
 10
461.5
 20
-122.25
 30
0.0
 11
458.5
 21
-122.25
 31
0.0
  0
LINE
  5
3F6
330
61C
100
AcDbEntity
  8
Contour
100
AcDbLine
 10
597.5
 20
-122.2500000000001
 30
0.0
 11
594.5
 21
-122.2500000000001
 31
0.0
  0
LINE
  5
3F7
330
61C
100
AcDbEntity
  8
Decoupe
100
AcDbLine
 10
395.5
 20
-122.25
 30
0.0
 11
398.5
 21
-122.25
 31
0.0
  0
LINE
  5
3F8
330
61C
100
AcDbEntity
  8
Contour
100
AcDbLine
 10
325.5
 20
-122.25
 30
0.0
 11
322.5
 21
-122.25
 31
0.0
  0
LINE
  5
3F9
330
61C
100
AcDbEntity
  8
Decoupe
100
AcDbLine
 10
531.5
 20
-92.25
 30
0.0
 11
534.5
 21
-92.25
 31
0.0
  0
LINE
  5
3FA
330
61C
100
AcDbEntity
  8
Decoupe
100
AcDbLine
 10
461.5
 20
-92.25
 30
0.0
 11
458.5
 21
-92.25
 31
0.0
  0
LINE
  5
3FB
330
61C
100
AcDbEntity
  8
Contour
100
AcDbLine
 10
597.5
 20
-92.25
 30
0.0
 11
594.5
 21
-92.25
 31
0.0
  0
LINE
  5
3FC
330
61C
100
AcDbEntity
  8
Decoupe
100
AcDbLine
 10
395.5
 20
-92.25
 30
0.0
 11
398.5
 21
-92.25
 31
0.0
  0
LINE
  5
3FD
330
61C
100
AcDbEntity
  8
Contour
100
AcDbLine
 10
325.5
 20
-92.25
 30
0.0
 11
322.5
 21
-92.25
 31
0.0
  0
LINE
  5
3FE
330
61C
100
AcDbEntity
  8
Decoupe
100
AcDbLine
 10
531.5
 20
-62.25000000000001
 30
0.0
 11
534.5
 21
-62.25000000000001
 31
0.0
  0
LINE
  5
3FF
330
61C
100
AcDbEntity
  8
Decoupe
100
AcDbLine
 10
461.5
 20
-62.25000000000003
 30
0.0
 11
458.5
 21
-62.25000000000003
 31
0.0
  0
LINE
  5
400
330
61C
100
AcDbEntity
  8
Contour
100
AcDbLine
 10
597.5
 20
-62.25000000000004
 30
0.0
 11
594.5
 21
-62.25000000000004
 31
0.0
  0
LINE
  5
401
330
61C
100
AcDbEntity
  8
Decoupe
100
AcDbLine
 10
395.5
 20
-62.25000000000001
 30
0.0
 11
398.5
 21
-62.25000000000001
 31
0.0
  0
LINE
  5
402
330
61C
100
AcDbEntity
  8
Contour
100
AcDbLine
 10
325.5
 20
-62.25
 30
0.0
 11
322.5
 21
-62.25
 31
0.0
  0
LINE
  5
403
330
61C
100
AcDbEntity
  8
Decoupe
100
AcDbLine
 10
531.5
 20
-32.25000000000001
 30
0.0
 11
534.5
 21
-32.25000000000001
 31
0.0
  0
LINE
  5
404
330
61C
100
AcDbEntity
  8
Decoupe
100
AcDbLine
 10
461.5
 20
-32.25000000000003
 30
0.0
 11
458.5
 21
-32.25000000000003
 31
0.0
  0
LINE
  5
405
330
61C
100
AcDbEntity
  8
Contour
100
AcDbLine
 10
597.5
 20
-32.25000000000004
 30
0.0
 11
594.5
 21
-32.25000000000004
 31
0.0
  0
LINE
  5
406
330
61C
100
AcDbEntity
  8
Decoupe
100
AcDbLine
 10
395.5
 20
-32.25000000000001
 30
0.0
 11
398.5
 21
-32.25000000000001
 31
0.0
  0
LINE
  5
407
330
61C
100
AcDbEntity
  8
Contour
100
AcDbLine
 10
325.5
 20
-32.25
 30
0.0
 11
322.5
 21
-32.25
 31
0.0
  0
LINE
  5
408
330
61C
100
AcDbEntity
  8
Decoupe
100
AcDbLine
 10
531.5
 20
-2.250000000000011
 30
0.0
 11
534.5
 21
-2.250000000000011
 31
0.0
  0
LINE
  5
409
330
61C
100
AcDbEntity
  8
Decoupe
100
AcDbLine
 10
461.5
 20
-2.250000000000028
 30
0.0
 11
458.5
 21
-2.250000000000028
 31
0.0
  0
LINE
  5
40A
330
61C
100
AcDbEntity
  8
Contour
100
AcDbLine
 10
597.5
 20
-2.250000000000043
 30
0.0
 11
594.5
 21
-2.250000000000043
 31
0.0
  0
LINE
  5
40B
330
61C
100
AcDbEntity
  8
Decoupe
100
AcDbLine
 10
395.5
 20
-2.250000000000011
 30
0.0
 11
398.5
 21
-2.250000000000011
 31
0.0
  0
LINE
  5
40C
330
61C
100
AcDbEntity
  8
Contour
100
AcDbLine
 10
325.5
 20
-2.25
 30
0.0
 11
322.5
 21
-2.25
 31
0.0
  0
LINE
  5
40D
330
61C
100
AcDbEntity
  8
Contour
100
AcDbLine
 10
325.5
 20
27.75
 30
0.0
 11
322.5
 21
27.75
 31
0.0
  0
LINE
  5
40E
330
61C
100
AcDbEntity
  8
Contour
100
AcDbLine
 10
325.5
 20
57.75
 30
0.0
 11
322.5
 21
57.75
 31
0.0
  0
LINE
  5
40F
330
61C
100
AcDbEntity
  8
Contour
100
AcDbLine
 10
325.5
 20
177.75
 30
0.0
 11
322.5
 21
177.75
 31
0.0
  0
LINE
  5
410
330
61C
100
AcDbEntity
  8
Contour
100
AcDbLine
 10
594.5
 20
117.75
 30
0.0
 11
594.5
 21
102.75
 31
0.0
  0
LINE
  5
411
330
61C
100
AcDbEntity
  8
Contour
100
AcDbLine
 10
594.5
 20
147.75
 30
0.0
 11
594.5
 21
132.75
 31
0.0
  0
LINE
  5
412
330
61C
100
AcDbEntity
  8
Contour
100
AcDbLine
 10
594.5
 20
87.75
 30
0.0
 11
594.5
 21
72.75
 31
0.0
  0
LINE
  5
413
330
61C
100
AcDbEntity
  8
Decoupe
100
AcDbLine
 10
458.5
 20
147.75
 30
0.0
 11
458.5
 21
132.75
 31
0.0
  0
LINE
  5
414
330
61C
100
AcDbEntity
  8
Decoupe
100
AcDbLine
 10
458.5
 20
117.75
 30
0.0
 11
458.5
 21
102.75
 31
0.0
  0
LINE
  5
415
330
61C
100
AcDbEntity
  8
Decoupe
100
AcDbLine
 10
458.5
 20
87.75
 30
0.0
 11
458.5
 21
72.75
 31
0.0
  0
LINE
  5
416
330
61C
100
AcDbEntity
  8
Contour
100
AcDbLine
 10
322.5
 20
87.75
 30
0.0
 11
322.5
 21
72.75
 31
0.0
  0
LINE
  5
417
330
61C
100
AcDbEntity
  8
Contour
100
AcDbLine
 10
322.5
 20
117.75
 30
0.0
 11
322.5
 21
102.75
 31
0.0
  0
LINE
  5
418
330
61C
100
AcDbEntity
  8
Contour
100
AcDbLine
 10
322.5
 20
147.75
 30
0.0
 11
322.5
 21
132.75
 31
0.0
  0
LINE
  5
419
330
61C
100
AcDbEntity
  8
Decoupe
100
AcDbLine
 10
458.5
 20
207.75
 30
0.0
 11
458.5
 21
192.75
 31
0.0
  0
LINE
  5
41A
330
61C
100
AcDbEntity
  8
Decoupe
100
AcDbLine
 10
458.5
 20
177.75
 30
0.0
 11
458.5
 21
162.75
 31
0.0
  0
LINE
  5
41B
330
61C
100
AcDbEntity
  8
Decoupe
100
AcDbLine
 10
458.5
 20
57.75
 30
0.0
 11
458.5
 21
42.75
 31
0.0
  0
LINE
  5
41C
330
61C
100
AcDbEntity
  8
Contour
100
AcDbLine
 10
594.5
 20
57.75
 30
0.0
 11
594.5
 21
42.75
 31
0.0
  0
LINE
  5
41D
330
61C
100
AcDbEntity
  8
Contour
100
AcDbLine
 10
594.5
 20
207.75
 30
0.0
 11
594.5
 21
192.75
 31
0.0
  0
LINE
  5
41E
330
61C
100
AcDbEntity
  8
Contour
100
AcDbLine
 10
594.5
 20
177.75
 30
0.0
 11
594.5
 21
162.75
 31
0.0
  0
LINE
  5
41F
330
61C
100
AcDbEntity
  8
Contour
100
AcDbLine
 10
594.5
 20
27.75
 30
0.0
 11
594.5
 21
12.75
 31
0.0
  0
LINE
  5
420
330
61C
100
AcDbEntity
  8
Decoupe
100
AcDbLine
 10
458.5
 20
27.75
 30
0.0
 11
458.5
 21
12.75
 31
0.0
  0
LINE
  5
421
330
61C
100
AcDbEntity
  8
Decoupe
100
AcDbLine
 10
534.5
 20
-122.25
 30
0.0
 11
534.5
 21
-137.25
 31
0.0
  0
LINE
  5
422
330
61C
100
AcDbEntity
  8
Decoupe
100
AcDbLine
 10
458.5
 20
-122.25
 30
0.0
 11
458.5
 21
-137.25
 31
0.0
  0
LINE
  5
423
330
61C
100
AcDbEntity
  8
Contour
100
AcDbLine
 10
594.5
 20
-122.2500000000001
 30
0.0
 11
594.5
 21
-137.2500000000001
 31
0.0
  0
LINE
  5
424
330
61C
100
AcDbEntity
  8
Decoupe
100
AcDbLine
 10
398.5
 20
-122.25
 30
0.0
 11
398.5
 21
-137.25
 31
0.0
  0
LINE
  5
425
330
61C
100
AcDbEntity
  8
Contour
100
AcDbLine
 10
322.5
 20
-122.25
 30
0.0
 11
322.5
 21
-137.25
 31
0.0
  0
LINE
  5
426
330
61C
100
AcDbEntity
  8
Decoupe
100
AcDbLine
 10
534.5
 20
-92.25
 30
0.0
 11
534.5
 21
-107.25
 31
0.0
  0
LINE
  5
427
330
61C
100
AcDbEntity
  8
Decoupe
100
AcDbLine
 10
458.5
 20
-92.25
 30
0.0
 11
458.5
 21
-107.25
 31
0.0
  0
LINE
  5
428
330
61C
100
AcDbEntity
  8
Contour
100
AcDbLine
 10
594.5
 20
-92.25
 30
0.0
 11
594.5
 21
-107.25
 31
0.0
  0
LINE
  5
429
330
61C
100
AcDbEntity
  8
Decoupe
100
AcDbLine
 10
398.5
 20
-92.25
 30
0.0
 11
398.5
 21
-107.25
 31
0.0
  0
LINE
  5
42A
330
61C
100
AcDbEntity
  8
Contour
100
AcDbLine
 10
322.5
 20
-92.25
 30
0.0
 11
322.5
 21
-107.25
 31
0.0
  0
LINE
  5
42B
330
61C
100
AcDbEntity
  8
Decoupe
100
AcDbLine
 10
534.5
 20
-62.25000000000001
 30
0.0
 11
534.5
 21
-77.25000000000001
 31
0.0
  0
LINE
  5
42C
330
61C
100
AcDbEntity
  8
Decoupe
100
AcDbLine
 10
458.5
 20
-62.25000000000003
 30
0.0
 11
458.5
 21
-77.25000000000003
 31
0.0
  0
LINE
  5
42D
330
61C
100
AcDbEntity
  8
Contour
100
AcDbLine
 10
594.5
 20
-62.25000000000004
 30
0.0
 11
594.5
 21
-77.25000000000004
 31
0.0
  0
LINE
  5
42E
330
61C
100
AcDbEntity
  8
Decoupe
100
AcDbLine
 10
398.5
 20
-62.25000000000001
 30
0.0
 11
398.5
 21
-77.25000000000001
 31
0.0
  0
LINE
  5
42F
330
61C
100
AcDbEntity
  8
Contour
100
AcDbLine
 10
322.5
 20
-62.25
 30
0.0
 11
322.5
 21
-77.25
 31
0.0
  0
LINE
  5
430
330
61C
100
AcDbEntity
  8
Decoupe
100
AcDbLine
 10
534.5
 20
-32.25000000000001
 30
0.0
 11
534.5
 21
-47.25
 31
0.0
  0
LINE
  5
431
330
61C
100
AcDbEntity
  8
Decoupe
100
AcDbLine
 10
458.5
 20
-32.25000000000003
 30
0.0
 11
458.5
 21
-47.25000000000003
 31
0.0
  0
LINE
  5
432
330
61C
100
AcDbEntity
  8
Contour
100
AcDbLine
 10
594.5
 20
-32.25000000000004
 30
0.0
 11
594.5
 21
-47.25000000000004
 31
0.0
  0
LINE
  5
433
330
61C
100
AcDbEntity
  8
Decoupe
100
AcDbLine
 10
398.5
 20
-32.25000000000001
 30
0.0
 11
398.5
 21
-47.25
 31
0.0
  0
LINE
  5
434
330
61C
100
AcDbEntity
  8
Contour
100
AcDbLine
 10
322.5
 20
-32.25
 30
0.0
 11
322.5
 21
-47.25
 31
0.0
  0
LINE
  5
435
330
61C
100
AcDbEntity
  8
Decoupe
100
AcDbLine
 10
534.5
 20
-2.250000000000011
 30
0.0
 11
534.5
 21
-17.25000000000001
 31
0.0
  0
LINE
  5
436
330
61C
100
AcDbEntity
  8
Decoupe
100
AcDbLine
 10
458.5
 20
-2.250000000000028
 30
0.0
 11
458.5
 21
-17.25000000000003
 31
0.0
  0
LINE
  5
437
330
61C
100
AcDbEntity
  8
Contour
100
AcDbLine
 10
594.5
 20
-2.250000000000043
 30
0.0
 11
594.5
 21
-17.25000000000004
 31
0.0
  0
LINE
  5
438
330
61C
100
AcDbEntity
  8
Decoupe
100
AcDbLine
 10
398.5
 20
-2.250000000000011
 30
0.0
 11
398.5
 21
-17.25000000000001
 31
0.0
  0
LINE
  5
439
330
61C
100
AcDbEntity
  8
Contour
100
AcDbLine
 10
322.5
 20
-2.25
 30
0.0
 11
322.5
 21
-17.25
 31
0.0
  0
LINE
  5
43A
330
61C
100
AcDbEntity
  8
Contour
100
AcDbLine
 10
322.5
 20
27.75
 30
0.0
 11
322.5
 21
12.75
 31
0.0
  0
LINE
  5
43B
330
61C
100
AcDbEntity
  8
Contour
100
AcDbLine
 10
322.5
 20
57.75
 30
0.0
 11
322.5
 21
42.75
 31
0.0
  0
LINE
  5
43C
330
61C
100
AcDbEntity
  8
Contour
100
AcDbLine
 10
322.5
 20
177.75
 30
0.0
 11
322.5
 21
162.75
 31
0.0
  0
LINE
  5
43D
330
61C
100
AcDbEntity
  8
Contour
100
AcDbLine
 10
322.5
 20
207.75
 30
0.0
 11
322.5
 21
192.75
 31
0.0
  0
LINE
  5
447
330
61C
100
AcDbEntity
  8
Decoupe
100
AcDbLine
 10
471.5
 20
192.75
 30
0.0
 11
481.5
 21
192.75
 31
0.0
  0
LINE
  5
448
330
61C
100
AcDbEntity
  8
Decoupe
100
AcDbLine
 10
544.5
 20
192.75
 30
0.0
 11
554.5
 21
192.75
 31
0.0
  0
LINE
  5
449
330
61C
100
AcDbEntity
  8
Decoupe
100
AcDbLine
 10
408.5
 20
192.75
 30
0.0
 11
418.5
 21
192.75
 31
0.0
  0
LINE
  5
44A
330
61C
100
AcDbEntity
  8
Decoupe
100
AcDbLine
 10
335.5
 20
192.75
 30
0.0
 11
345.5
 21
192.75
 31
0.0
  0
LINE
  5
44B
330
61C
100
AcDbEntity
  8
Decoupe
100
AcDbLine
 10
481.5
 20
192.75
 30
0.0
 11
481.5
 21
195.75
 31
0.0
  0
LINE
  5
44C
330
61C
100
AcDbEntity
  8
Decoupe
100
AcDbLine
 10
554.5
 20
192.75
 30
0.0
 11
554.5
 21
195.75
 31
0.0
  0
LINE
  5
44D
330
61C
100
AcDbEntity
  8
Decoupe
100
AcDbLine
 10
418.5
 20
192.75
 30
0.0
 11
418.5
 21
195.75
 31
0.0
  0
LINE
  5
44E
330
61C
100
AcDbEntity
  8
Decoupe
100
AcDbLine
 10
345.5
 20
192.75
 30
0.0
 11
345.5
 21
195.75
 31
0.0
  0
LINE
  5
44F
330
61C
100
AcDbEntity
  8
Decoupe
100
AcDbLine
 10
481.5
 20
195.75
 30
0.0
 11
471.5
 21
195.75
 31
0.0
  0
LINE
  5
450
330
61C
100
AcDbEntity
  8
Decoupe
100
AcDbLine
 10
554.5
 20
195.75
 30
0.0
 11
544.5
 21
195.75
 31
0.0
  0
LINE
  5
451
330
61C
100
AcDbEntity
  8
Decoupe
100
AcDbLine
 10
418.5
 20
195.75
 30
0.0
 11
408.5
 21
195.75
 31
0.0
  0
LINE
  5
452
330
61C
100
AcDbEntity
  8
Decoupe
100
AcDbLine
 10
345.5
 20
195.75
 30
0.0
 11
335.5
 21
195.75
 31
0.0
  0
LINE
  5
453
330
61C
100
AcDbEntity
  8
Decoupe
100
AcDbLine
 10
471.5
 20
195.75
 30
0.0
 11
471.5
 21
192.75
 31
0.0
  0
LINE
  5
454
330
61C
100
AcDbEntity
  8
Decoupe
100
AcDbLine
 10
544.5
 20
195.75
 30
0.0
 11
544.5
 21
192.75
 31
0.0
  0
LINE
  5
455
330
61C
100
AcDbEntity
  8
Decoupe
100
AcDbLine
 10
408.5
 20
195.75
 30
0.0
 11
408.5
 21
192.75
 31
0.0
  0
LINE
  5
456
330
61C
100
AcDbEntity
  8
Decoupe
100
AcDbLine
 10
335.5
 20
195.75
 30
0.0
 11
335.5
 21
192.75
 31
0.0
  0
LINE
  5
457
330
61C
100
AcDbEntity
  8
Decoupe
100
AcDbLine
 10
511.5
 20
192.75
 30
0.0
 11
521.5
 21
192.75
 31
0.0
  0
LINE
  5
458
330
61C
100
AcDbEntity
  8
Decoupe
100
AcDbLine
 10
574.5
 20
192.75
 30
0.0
 11
584.5
 21
192.75
 31
0.0
  0
LINE
  5
459
330
61C
100
AcDbEntity
  8
Decoupe
100
AcDbLine
 10
438.5
 20
192.75
 30
0.0
 11
448.5
 21
192.75
 31
0.0
  0
LINE
  5
45A
330
61C
100
AcDbEntity
  8
Decoupe
100
AcDbLine
 10
375.5
 20
192.75
 30
0.0
 11
385.5
 21
192.75
 31
0.0
  0
LINE
  5
45B
330
61C
100
AcDbEntity
  8
Decoupe
100
AcDbLine
 10
521.5
 20
192.75
 30
0.0
 11
521.5
 21
195.75
 31
0.0
  0
LINE
  5
45C
330
61C
100
AcDbEntity
  8
Decoupe
100
AcDbLine
 10
584.5
 20
192.75
 30
0.0
 11
584.5
 21
195.75
 31
0.0
  0
LINE
  5
45D
330
61C
100
AcDbEntity
  8
Decoupe
100
AcDbLine
 10
448.5
 20
192.75
 30
0.0
 11
448.5
 21
195.75
 31
0.0
  0
LINE
  5
45E
330
61C
100
AcDbEntity
  8
Decoupe
100
AcDbLine
 10
385.5
 20
192.75
 30
0.0
 11
385.5
 21
195.75
 31
0.0
  0
LINE
  5
45F
330
61C
100
AcDbEntity
  8
Decoupe
100
AcDbLine
 10
521.5
 20
195.75
 30
0.0
 11
511.5
 21
195.75
 31
0.0
  0
LINE
  5
460
330
61C
100
AcDbEntity
  8
Decoupe
100
AcDbLine
 10
584.5
 20
195.75
 30
0.0
 11
574.5
 21
195.75
 31
0.0
  0
LINE
  5
461
330
61C
100
AcDbEntity
  8
Decoupe
100
AcDbLine
 10
448.5
 20
195.75
 30
0.0
 11
438.5
 21
195.75
 31
0.0
  0
LINE
  5
462
330
61C
100
AcDbEntity
  8
Decoupe
100
AcDbLine
 10
385.5
 20
195.75
 30
0.0
 11
375.5
 21
195.75
 31
0.0
  0
LINE
  5
463
330
61C
100
AcDbEntity
  8
Decoupe
100
AcDbLine
 10
511.5
 20
195.75
 30
0.0
 11
511.5
 21
192.75
 31
0.0
  0
LINE
  5
464
330
61C
100
AcDbEntity
  8
Decoupe
100
AcDbLine
 10
574.5
 20
195.75
 30
0.0
 11
574.5
 21
192.75
 31
0.0
  0
LINE
  5
465
330
61C
100
AcDbEntity
  8
Decoupe
100
AcDbLine
 10
438.5
 20
195.75
 30
0.0
 11
438.5
 21
192.75
 31
0.0
  0
LINE
  5
466
330
61C
100
AcDbEntity
  8
Decoupe
100
AcDbLine
 10
375.5
 20
195.75
 30
0.0
 11
375.5
 21
192.75
 31
0.0
  0
CIRCLE
  5
467
330
61C
100
AcDbEntity
  8
Decoupe
100
AcDbCircle
 10
496.5
 20
194.25
 30
0.0
 40
1.5
  0
CIRCLE
  5
468
330
61C
100
AcDbEntity
  8
Decoupe
100
AcDbCircle
 10
564.5
 20
194.25
 30
0.0
 40
1.5
  0
CIRCLE
  5
469
330
61C
100
AcDbEntity
  8
Decoupe
100
AcDbCircle
 10
428.5
 20
194.25
 30
0.0
 40
1.5
  0
CIRCLE
  5
46A
330
61C
100
AcDbEntity
  8
Decoupe
100
AcDbCircle
 10
360.5
 20
194.25
 30
0.0
 40
1.5
  0
LINE
  5
46C
330
61C
100
AcDbEntity
  8
Decoupe
100
AcDbLine
 10
507.4000013055013
 20
89.55553187421938
 30
0.0
 11
507.3998992626025
 21
94.5555318731781
 31
0.0
  0
LINE
  5
46B
330
61C
100
AcDbEntity
  8
Decoupe
100
AcDbLine
 10
507.4000013055013
 20
-123.7499999999735
 30
0.0
 11
507.3998992626025
 21
-118.7500000010148
 31
0.0
  0
LINE
  5
46E
330
61C
100
AcDbEntity
  8
Decoupe
100
AcDbLine
 10
507.3998992626025
 20
94.5555318731781
 30
0.0
 11
516.4998992626024
 21
94.5555318731781
 31
0.0
  0
LINE
  5
46D
330
61C
100
AcDbEntity
  8
Decoupe
100
AcDbLine
 10
507.3998992626025
 20
-118.7500000010148
 30
0.0
 11
516.4998992626024
 21
-118.7500000010148
 31
0.0
  0
LINE
  5
470
330
61C
100
AcDbEntity
  8
Decoupe
100
AcDbLine
 10
516.4998992626024
 20
94.5555318731781
 30
0.0
 11
516.5
 21
89.5555318741929
 31
0.0
  0
LINE
  5
46F
330
61C
100
AcDbEntity
  8
Decoupe
100
AcDbLine
 10
516.4998992626024
 20
-118.7500000010148
 30
0.0
 11
516.5
 21
-123.75
 31
0.0
  0
LINE
  5
472
330
61C
100
AcDbEntity
  8
Decoupe
100
AcDbLine
 10
516.5
 20
89.5555318741929
 30
0.0
 11
507.4000000000001
 21
89.5555318741929
 31
0.0
  0
LINE
  5
471
330
61C
100
AcDbEntity
  8
Decoupe
100
AcDbLine
 10
516.5
 20
-123.75
 30
0.0
 11
507.4000000000001
 21
-123.75
 31
0.0
  0
LINE
  5
473
330
61C
100
AcDbEntity
  8
Contour
100
AcDbLine
 10
547.5
 20
-167.75
 30
0.0
 11
547.5
 21
-163.75
 31
0.0
  0
LINE
  5
474
330
61C
100
AcDbEntity
  8
Contour
100
AcDbLine
 10
479.5
 20
-167.75
 30
0.0
 11
479.5
 21
-163.75
 31
0.0
  0
LINE
  5
475
330
61C
100
AcDbEntity
  8
Contour
100
AcDbLine
 10
411.5
 20
-167.75
 30
0.0
 11
411.5
 21
-163.75
 31
0.0
  0
LINE
  5
476
330
61C
100
AcDbEntity
  8
Contour
100
AcDbLine
 10
343.5
 20
-167.75
 30
0.0
 11
343.5
 21
-163.75
 31
0.0
  0
LINE
  5
477
330
61C
100
AcDbEntity
  8
Contour
100
AcDbLine
 10
581.5
 20
-167.75
 30
0.0
 11
581.5
 21
-163.75
 31
0.0
  0
LINE
  5
478
330
61C
100
AcDbEntity
  8
Contour
100
AcDbLine
 10
513.5
 20
-167.75
 30
0.0
 11
513.5
 21
-163.75
 31
0.0
  0
LINE
  5
479
330
61C
100
AcDbEntity
  8
Contour
100
AcDbLine
 10
445.5
 20
-167.75
 30
0.0
 11
445.5
 21
-163.75
 31
0.0
  0
LINE
  5
47A
330
61C
100
AcDbEntity
  8
Contour
100
AcDbLine
 10
377.5
 20
-167.75
 30
0.0
 11
377.5
 21
-163.75
 31
0.0
  0
LINE
  5
482
330
61C
100
AcDbEntity
  8
Decoupe
100
AcDbLine
 10
489.0
 20
109.75
 30
0.0
 11
504.0
 21
109.75
 31
0.0
  0
LINE
  5
484
330
61C
100
AcDbEntity
  8
Decoupe
100
AcDbLine
 10
504.0
 20
109.75
 30
0.0
 11
504.0
 21
162.75
 31
0.0
  0
LINE
  5
486
330
61C
100
AcDbEntity
  8
Decoupe
100
AcDbLine
 10
504.0
 20
162.75
 30
0.0
 11
489.0
 21
162.75
 31
0.0
  0
LINE
  5
488
330
61C
100
AcDbEntity
  8
Decoupe
100
AcDbLine
 10
489.0
 20
162.75
 30
0.0
 11
489.0
 21
109.75
 31
0.0
  0
LINE
  5
48D
330
61C
100
AcDbEntity
  8
Decoupe
100
AcDbLine
 10
345.0
 20
133.75
 30
0.0
 11
348.0
 21
133.75
 31
0.0
  0
LINE
  5
48E
330
61C
100
AcDbEntity
  8
Decoupe
100
AcDbLine
 10
481.0
 20
133.75
 30
0.0
 11
484.0
 21
133.75
 31
0.0
  0
LINE
  5
48F
330
61C
100
AcDbEntity
  8
Decoupe
100
AcDbLine
 10
348.0
 20
133.75
 30
0.0
 11
348.0
 21
138.75
 31
0.0
  0
LINE
  5
490
330
61C
100
AcDbEntity
  8
Decoupe
100
AcDbLine
 10
484.0
 20
133.75
 30
0.0
 11
484.0
 21
138.75
 31
0.0
  0
LINE
  5
491
330
61C
100
AcDbEntity
  8
Decoupe
100
AcDbLine
 10
348.0
 20
138.75
 30
0.0
 11
345.0
 21
138.75
 31
0.0
  0
LINE
  5
492
330
61C
100
AcDbEntity
  8
Decoupe
100
AcDbLine
 10
484.0
 20
138.75
 30
0.0
 11
481.0
 21
138.75
 31
0.0
  0
LINE
  5
493
330
61C
100
AcDbEntity
  8
Decoupe
100
AcDbLine
 10
345.0
 20
138.75
 30
0.0
 11
345.0
 21
133.75
 31
0.0
  0
LINE
  5
494
330
61C
100
AcDbEntity
  8
Decoupe
100
AcDbLine
 10
481.0
 20
138.75
 30
0.0
 11
481.0
 21
133.75
 31
0.0
  0
LINE
  5
495
330
61C
100
AcDbEntity
  8
Decoupe
100
AcDbLine
 10
373.0
 20
133.75
 30
0.0
 11
376.0
 21
133.75
 31
0.0
  0
LINE
  5
496
330
61C
100
AcDbEntity
  8
Decoupe
100
AcDbLine
 10
509.0
 20
133.75
 30
0.0
 11
512.0
 21
133.75
 31
0.0
  0
LINE
  5
497
330
61C
100
AcDbEntity
  8
Decoupe
100
AcDbLine
 10
376.0
 20
133.75
 30
0.0
 11
376.0
 21
138.75
 31
0.0
  0
LINE
  5
498
330
61C
100
AcDbEntity
  8
Decoupe
100
AcDbLine
 10
512.0
 20
133.75
 30
0.0
 11
512.0
 21
138.75
 31
0.0
  0
LINE
  5
499
330
61C
100
AcDbEntity
  8
Decoupe
100
AcDbLine
 10
376.0
 20
138.75
 30
0.0
 11
373.0
 21
138.75
 31
0.0
  0
LINE
  5
49A
330
61C
100
AcDbEntity
  8
Decoupe
100
AcDbLine
 10
512.0
 20
138.75
 30
0.0
 11
509.0
 21
138.75
 31
0.0
  0
LINE
  5
49B
330
61C
100
AcDbEntity
  8
Decoupe
100
AcDbLine
 10
373.0
 20
138.75
 30
0.0
 11
373.0
 21
133.75
 31
0.0
  0
LINE
  5
49C
330
61C
100
AcDbEntity
  8
Decoupe
100
AcDbLine
 10
509.0
 20
138.75
 30
0.0
 11
509.0
 21
133.75
 31
0.0
  0
LINE
  5
49D
330
61C
100
AcDbEntity
  8
Contour
100
AcDbLine
 10
547.5
 20
-167.75
 30
0.0
 11
581.5
 21
-167.75
 31
0.0
  0
LINE
  5
49E
330
61C
100
AcDbEntity
  8
Contour
100
AcDbLine
 10
479.5
 20
-167.75
 30
0.0
 11
513.5
 21
-167.75
 31
0.0
  0
LINE
  5
49F
330
61C
100
AcDbEntity
  8
Contour
100
AcDbLine
 10
411.5
 20
-167.75
 30
0.0
 11
445.5
 21
-167.75
 31
0.0
  0
LINE
  5
4A0
330
61C
100
AcDbEntity
  8
Contour
100
AcDbLine
 10
343.5
 20
-167.75
 30
0.0
 11
377.5
 21
-167.75
 31
0.0
  0
LINE
  5
4A1
330
61C
100
AcDbEntity
  8
Contour
100
AcDbLine
 10
547.5
 20
-160.75
 30
0.0
 11
531.5
 21
-160.75
 31
0.0
  0
LINE
  5
4A2
330
61C
100
AcDbEntity
  8
Contour
100
AcDbLine
 10
479.5
 20
-160.75
 30
0.0
 11
461.5
 21
-160.75
 31
0.0
  0
LINE
  5
4A3
330
61C
100
AcDbEntity
  8
Contour
100
AcDbLine
 10
411.5
 20
-160.75
 30
0.0
 11
395.5
 21
-160.75
 31
0.0
  0
LINE
  5
4A4
330
61C
100
AcDbEntity
  8
Contour
100
AcDbLine
 10
343.5
 20
-160.75
 30
0.0
 11
325.5
 21
-160.75
 31
0.0
  0
LINE
  5
4A5
330
61C
100
AcDbEntity
  8
Contour
100
AcDbLine
 10
581.5
 20
-160.75
 30
0.0
 11
597.5
 21
-160.75
 31
0.0
  0
LINE
  5
4A6
330
61C
100
AcDbEntity
  8
Contour
100
AcDbLine
 10
513.5
 20
-160.75
 30
0.0
 11
531.5
 21
-160.75
 31
0.0
  0
LINE
  5
4A7
330
61C
100
AcDbEntity
  8
Contour
100
AcDbLine
 10
445.5
 20
-160.75
 30
0.0
 11
461.5
 21
-160.75
 31
0.0
  0
LINE
  5
4A8
330
61C
100
AcDbEntity
  8
Contour
100
AcDbLine
 10
377.5
 20
-160.75
 30
0.0
 11
395.5
 21
-160.75
 31
0.0
  0
LINE
  5
4A9
330
61C
100
AcDbEntity
  8
Contour
100
AcDbLine
 10
547.5
 20
-163.75
 30
0.0
 11
547.5
 21
-160.75
 31
0.0
  0
LINE
  5
4AA
330
61C
100
AcDbEntity
  8
Contour
100
AcDbLine
 10
479.5
 20
-163.75
 30
0.0
 11
479.5
 21
-160.75
 31
0.0
  0
LINE
  5
4AB
330
61C
100
AcDbEntity
  8
Contour
100
AcDbLine
 10
411.5
 20
-163.75
 30
0.0
 11
411.5
 21
-160.75
 31
0.0
  0
LINE
  5
4AC
330
61C
100
AcDbEntity
  8
Contour
100
AcDbLine
 10
343.5
 20
-163.75
 30
0.0
 11
343.5
 21
-160.75
 31
0.0
  0
LINE
  5
4AD
330
61C
100
AcDbEntity
  8
Contour
100
AcDbLine
 10
581.5
 20
-163.75
 30
0.0
 11
581.5
 21
-160.75
 31
0.0
  0
LINE
  5
4AE
330
61C
100
AcDbEntity
  8
Contour
100
AcDbLine
 10
513.5
 20
-163.75
 30
0.0
 11
513.5
 21
-160.75
 31
0.0
  0
LINE
  5
4AF
330
61C
100
AcDbEntity
  8
Contour
100
AcDbLine
 10
445.5
 20
-163.75
 30
0.0
 11
445.5
 21
-160.75
 31
0.0
  0
LINE
  5
4B0
330
61C
100
AcDbEntity
  8
Contour
100
AcDbLine
 10
377.5
 20
-163.75
 30
0.0
 11
377.5
 21
-160.75
 31
0.0
  0
LINE
  5
4B5
330
61C
100
AcDbEntity
  8
Contour
100
AcDbLine
 10
597.5
 20
12.75000000000001
 30
0.0
 11
594.5
 21
12.75000000000001
 31
0.0
  0
LINE
  5
4B7
330
61C
100
AcDbEntity
  8
Contour
100
AcDbLine
 10
597.5
 20
-137.2500000000001
 30
0.0
 11
597.5
 21
-160.7500000000001
 31
0.0
  0
LINE
  5
4B8
330
61C
100
AcDbEntity
  8
Decoupe
100
AcDbLine
 10
531.5
 20
-137.25
 30
0.0
 11
531.5
 21
-160.75
 31
0.0
  0
LINE
  5
4B9
330
61C
100
AcDbEntity
  8
Decoupe
100
AcDbLine
 10
461.5
 20
-137.25
 30
0.0
 11
461.5
 21
-160.75
 31
0.0
  0
LINE
  5
4BA
330
61C
100
AcDbEntity
  8
Decoupe
100
AcDbLine
 10
395.5
 20
-137.25
 30
0.0
 11
395.5
 21
-160.75
 31
0.0
  0
LINE
  5
4BB
330
61C
100
AcDbEntity
  8
Contour
100
AcDbLine
 10
325.5
 20
-137.25
 30
0.0
 11
325.5
 21
-160.75
 31
0.0
  0
LINE
  5
59D
330
61C
100
AcDbEntity
  8
Contour
100
AcDbLine
 10
665.5
 20
171.5
 30
0.0
 11
665.5
 21
168.5
 31
0.0
  0
LINE
  5
59E
330
61C
100
AcDbEntity
  8
Contour
100
AcDbLine
 10
651.5
 20
159.5
 30
0.0
 11
648.5
 21
159.5
 31
0.0
  0
LINE
  5
59F
330
61C
100
AcDbEntity
  8
Contour
100
AcDbLine
 10
648.5
 20
180.5
 30
0.0
 11
651.5
 21
180.5
 31
0.0
  0
LINE
  5
5A0
330
61C
100
AcDbEntity
  8
Contour
100
AcDbLine
 10
634.5
 20
168.5
 30
0.0
 11
634.5
 21
171.5
 31
0.0
  0
LINE
  5
5A1
330
61C
100
AcDbEntity
  8
Contour
100
AcDbLine
 10
672.5
 20
168.4999999999999
 30
0.0
 11
685.0
 21
168.4999999999999
 31
0.0
  0
LINE
  5
5A2
330
61C
100
AcDbEntity
  8
Contour
100
AcDbLine
 10
648.5
 20
152.5
 30
0.0
 11
648.5
 21
140.0
 31
0.0
  0
LINE
  5
5A3
330
61C
100
AcDbEntity
  8
Contour
100
AcDbLine
 10
651.5
 20
187.5
 30
0.0
 11
651.5
 21
200.0
 31
0.0
  0
LINE
  5
5A4
330
61C
100
AcDbEntity
  8
Contour
100
AcDbLine
 10
627.5
 20
171.5
 30
0.0
 11
615.0
 21
171.5
 31
0.0
  0
LINE
  5
5A5
330
61C
100
AcDbEntity
  8
Contour
100
AcDbLine
 10
665.5
 20
168.5
 30
0.0
 11
669.5
 21
168.5
 31
0.0
  0
LINE
  5
5A6
330
61C
100
AcDbEntity
  8
Contour
100
AcDbLine
 10
648.5
 20
159.5
 30
0.0
 11
648.5
 21
155.5
 31
0.0
  0
LINE
  5
5A7
330
61C
100
AcDbEntity
  8
Contour
100
AcDbLine
 10
651.5
 20
180.5
 30
0.0
 11
651.5
 21
184.5
 31
0.0
  0
LINE
  5
5A8
330
61C
100
AcDbEntity
  8
Contour
100
AcDbLine
 10
634.5
 20
171.5
 30
0.0
 11
630.5
 21
171.5
 31
0.0
  0
LINE
  5
5A9
330
61C
100
AcDbEntity
  8
Contour
100
AcDbLine
 10
669.5
 20
171.5
 30
0.0
 11
665.5
 21
171.5
 31
0.0
  0
LINE
  5
5AA
330
61C
100
AcDbEntity
  8
Contour
100
AcDbLine
 10
651.5
 20
155.5
 30
0.0
 11
651.5
 21
159.5
 31
0.0
  0
LINE
  5
5AB
330
61C
100
AcDbEntity
  8
Contour
100
AcDbLine
 10
648.5
 20
184.5
 30
0.0
 11
648.5
 21
180.5
 31
0.0
  0
LINE
  5
5AC
330
61C
100
AcDbEntity
  8
Contour
100
AcDbLine
 10
630.5
 20
168.5
 30
0.0
 11
634.5
 21
168.5
 31
0.0
  0
LINE
  5
5AD
330
61C
100
AcDbEntity
  8
Contour
100
AcDbLine
 10
685.0
 20
171.5
 30
0.0
 11
672.5
 21
171.5
 31
0.0
  0
LINE
  5
5AE
330
61C
100
AcDbEntity
  8
Contour
100
AcDbLine
 10
651.5
 20
140.0
 30
0.0
 11
651.5
 21
152.5
 31
0.0
  0
LINE
  5
5AF
330
61C
100
AcDbEntity
  8
Contour
100
AcDbLine
 10
648.5
 20
200.0
 30
0.0
 11
648.5
 21
187.5
 31
0.0
  0
LINE
  5
5B0
330
61C
100
AcDbEntity
  8
Contour
100
AcDbLine
 10
615.0
 20
168.5
 30
0.0
 11
627.5
 21
168.5
 31
0.0
  0
LINE
  5
5B2
330
61C
100
AcDbEntity
  8
Contraintes
100
AcDbLine
 10
665.5
 20
170.0
 30
0.0
 11
669.5
 21
170.0
 31
0.0
  0
LINE
  5
5B3
330
61C
100
AcDbEntity
  8
Contraintes
100
AcDbLine
 10
650.0
 20
159.5
 30
0.0
 11
650.0
 21
155.5
 31
0.0
  0
LINE
  5
5B4
330
61C
100
AcDbEntity
  8
Contraintes
100
AcDbLine
 10
650.0
 20
180.5
 30
0.0
 11
650.0
 21
184.5
 31
0.0
  0
LINE
  5
5B5
330
61C
100
AcDbEntity
  8
Contraintes
100
AcDbLine
 10
634.5
 20
170.0
 30
0.0
 11
630.5
 21
170.0
 31
0.0
  0
LINE
  5
5B6
330
61C
100
AcDbEntity
  8
Contraintes
100
AcDbLine
 10
685.0
 20
140.0
 30
0.0
 11
675.0
 21
140.0
 31
0.0
  0
LINE
  5
5B7
330
61C
100
AcDbEntity
  8
Contraintes
100
AcDbLine
 10
685.0
 20
200.0
 30
0.0
 11
685.0
 21
190.0
 31
0.0
  0
LINE
  5
5B8
330
61C
100
AcDbEntity
  8
Contraintes
100
AcDbLine
 10
615.0
 20
200.0
 30
0.0
 11
625.0
 21
200.0
 31
0.0
  0
LINE
  5
5B9
330
61C
100
AcDbEntity
  8
Contraintes
100
AcDbLine
 10
615.0
 20
140.0
 30
0.0
 11
615.0
 21
150.0
 31
0.0
  0
LINE
  5
5BA
330
61C
100
AcDbEntity
  8
Contraintes
100
AcDbLine
 10
625.0
 20
140.0
 30
0.0
 11
615.0
 21
140.0
 31
0.0
  0
LINE
  5
5BB
330
61C
100
AcDbEntity
  8
Contraintes
100
AcDbLine
 10
685.0
 20
150.0
 30
0.0
 11
685.0
 21
140.0
 31
0.0
  0
LINE
  5
5BC
330
61C
100
AcDbEntity
  8
Contraintes
100
AcDbLine
 10
675.0
 20
200.0
 30
0.0
 11
685.0
 21
200.0
 31
0.0
  0
LINE
  5
5BD
330
61C
100
AcDbEntity
  8
Contraintes
100
AcDbLine
 10
615.0
 20
190.0
 30
0.0
 11
615.0
 21
200.0
 31
0.0
  0
LINE
  5
5BE
330
61C
100
AcDbEntity
  8
Contour
100
AcDbLine
 10
665.0
 20
140.0
 30
0.0
 11
665.0
 21
137.0
 31
0.0
  0
LINE
  5
5BF
330
61C
100
AcDbEntity
  8
Contour
100
AcDbLine
 10
685.0
 20
179.9999999999999
 30
0.0
 11
688.0
 21
180.0
 31
0.0
  0
LINE
  5
5C0
330
61C
100
AcDbEntity
  8
Contour
100
AcDbLine
 10
635.0
 20
200.0
 30
0.0
 11
635.0
 21
203.0
 31
0.0
  0
LINE
  5
5C1
330
61C
100
AcDbEntity
  8
Contour
100
AcDbLine
 10
615.0
 20
160.0
 30
0.0
 11
612.0
 21
160.0
 31
0.0
  0
LINE
  5
5C2
330
61C
100
AcDbEntity
  8
Contour
100
AcDbLine
 10
665.0
 20
203.0
 30
0.0
 11
675.0
 21
203.0
 31
0.0
  0
LINE
  5
5C3
330
61C
100
AcDbEntity
  8
Contour
100
AcDbLine
 10
665.0
 20
137.0
 30
0.0
 11
675.0
 21
137.0
 31
0.0
  0
LINE
  5
5C4
330
61C
100
AcDbEntity
  8
Contour
100
AcDbLine
 10
688.0
 20
180.0
 30
0.0
 11
688.0
 21
189.9999999999999
 31
0.0
  0
LINE
  5
5C5
330
61C
100
AcDbEntity
  8
Contour
100
AcDbLine
 10
635.0
 20
203.0
 30
0.0
 11
625.0
 21
203.0
 31
0.0
  0
LINE
  5
5C6
330
61C
100
AcDbEntity
  8
Contour
100
AcDbLine
 10
612.0
 20
160.0
 30
0.0
 11
612.0
 21
150.0
 31
0.0
  0
LINE
  5
5C7
330
61C
100
AcDbEntity
  8
Contour
100
AcDbLine
 10
675.0
 20
137.0
 30
0.0
 11
675.0
 21
140.0
 31
0.0
  0
LINE
  5
5C8
330
61C
100
AcDbEntity
  8
Contour
100
AcDbLine
 10
688.0
 20
189.9999999999999
 30
0.0
 11
685.0
 21
190.0
 31
0.0
  0
LINE
  5
5C9
330
61C
100
AcDbEntity
  8
Contour
100
AcDbLine
 10
625.0
 20
203.0
 30
0.0
 11
625.0
 21
200.0
 31
0.0
  0
LINE
  5
5CA
330
61C
100
AcDbEntity
  8
Contour
100
AcDbLine
 10
612.0
 20
150.0
 30
0.0
 11
615.0
 21
150.0
 31
0.0
  0
LINE
  5
5CB
330
61C
100
AcDbEntity
  8
Contour
100
AcDbLine
 10
685.0
 20
150.0
 30
0.0
 11
688.0000000000001
 21
149.9999999999999
 31
0.0
  0
LINE
  5
5CC
330
61C
100
AcDbEntity
  8
Contour
100
AcDbLine
 10
625.0
 20
140.0
 30
0.0
 11
625.0
 21
137.0
 31
0.0
  0
LINE
  5
5CD
330
61C
100
AcDbEntity
  8
Contour
100
AcDbLine
 10
675.0
 20
200.0
 30
0.0
 11
675.0
 21
203.0
 31
0.0
  0
LINE
  5
5CE
330
61C
100
AcDbEntity
  8
Contour
100
AcDbLine
 10
615.0
 20
190.0
 30
0.0
 11
611.9999999999999
 21
190.0
 31
0.0
  0
LINE
  5
5CF
330
61C
100
AcDbEntity
  8
Contour
100
AcDbLine
 10
625.0
 20
137.0
 30
0.0
 11
635.0
 21
137.0
 31
0.0
  0
LINE
  5
5D0
330
61C
100
AcDbEntity
  8
Contour
100
AcDbLine
 10
688.0000000000001
 20
149.9999999999999
 30
0.0
 11
688.0
 21
160.0
 31
0.0
  0
LINE
  5
5D1
330
61C
100
AcDbEntity
  8
Contour
100
AcDbLine
 10
611.9999999999999
 20
190.0
 30
0.0
 11
611.9999999999999
 21
180.0
 31
0.0
  0
LINE
  5
5D2
330
61C
100
AcDbEntity
  8
Contour
100
AcDbLine
 10
635.0
 20
137.0
 30
0.0
 11
635.0
 21
140.0
 31
0.0
  0
LINE
  5
5D3
330
61C
100
AcDbEntity
  8
Contour
100
AcDbLine
 10
688.0
 20
160.0
 30
0.0
 11
685.0
 21
160.0
 31
0.0
  0
LINE
  5
5D4
330
61C
100
AcDbEntity
  8
Contour
100
AcDbLine
 10
665.0
 20
203.0
 30
0.0
 11
665.0
 21
200.0
 31
0.0
  0
LINE
  5
5D5
330
61C
100
AcDbEntity
  8
Contour
100
AcDbLine
 10
611.9999999999999
 20
180.0
 30
0.0
 11
615.0
 21
180.0
 31
0.0
  0
LINE
  5
5D6
330
61C
100
AcDbEntity
  8
Contour
100
AcDbLine
 10
635.0
 20
200.0
 30
0.0
 11
648.5
 21
200.0
 31
0.0
  0
LINE
  5
5D7
330
61C
100
AcDbEntity
  8
Contour
100
AcDbLine
 10
651.5
 20
200.0
 30
0.0
 11
665.0
 21
200.0
 31
0.0
  0
LINE
  5
5D8
330
61C
100
AcDbEntity
  8
Contour
100
AcDbLine
 10
685.0
 20
171.5
 30
0.0
 11
685.0
 21
179.9999999999999
 31
0.0
  0
LINE
  5
5D9
330
61C
100
AcDbEntity
  8
Contour
100
AcDbLine
 10
685.0
 20
160.0
 30
0.0
 11
685.0
 21
168.4999999999999
 31
0.0
  0
LINE
  5
5DA
330
61C
100
AcDbEntity
  8
Contour
100
AcDbLine
 10
651.5
 20
140.0
 30
0.0
 11
665.0
 21
140.0
 31
0.0
  0
LINE
  5
5DB
330
61C
100
AcDbEntity
  8
Contour
100
AcDbLine
 10
635.0
 20
140.0
 30
0.0
 11
648.5
 21
140.0
 31
0.0
  0
LINE
  5
5DC
330
61C
100
AcDbEntity
  8
Contour
100
AcDbLine
 10
615.0
 20
140.0
 30
0.0
 11
625.0
 21
140.0
 31
0.0
  0
LINE
  5
5DD
330
61C
100
AcDbEntity
  8
Contour
100
AcDbLine
 10
675.0
 20
140.0
 30
0.0
 11
685.0
 21
140.0
 31
0.0
  0
LINE
  5
5DE
330
61C
100
AcDbEntity
  8
Contour
100
AcDbLine
 10
685.0
 20
140.0
 30
0.0
 11
685.0
 21
150.0
 31
0.0
  0
LINE
  5
5DF
330
61C
100
AcDbEntity
  8
Contour
100
AcDbLine
 10
685.0
 20
190.0
 30
0.0
 11
685.0
 21
200.0
 31
0.0
  0
LINE
  5
5E0
330
61C
100
AcDbEntity
  8
Contour
100
AcDbLine
 10
685.0
 20
200.0
 30
0.0
 11
675.0
 21
200.0
 31
0.0
  0
LINE
  5
5E1
330
61C
100
AcDbEntity
  8
Contour
100
AcDbLine
 10
625.0
 20
200.0
 30
0.0
 11
615.0
 21
200.0
 31
0.0
  0
LINE
  5
5E2
330
61C
100
AcDbEntity
  8
Contour
100
AcDbLine
 10
615.0
 20
168.5
 30
0.0
 11
615.0
 21
160.0
 31
0.0
  0
LINE
  5
5E3
330
61C
100
AcDbEntity
  8
Contour
100
AcDbLine
 10
615.0
 20
180.0
 30
0.0
 11
615.0
 21
171.5
 31
0.0
  0
LINE
  5
5E4
330
61C
100
AcDbEntity
  8
Contour
100
AcDbLine
 10
615.0
 20
200.0
 30
0.0
 11
615.0
 21
190.0
 31
0.0
  0
LINE
  5
5E5
330
61C
100
AcDbEntity
  8
Contour
100
AcDbLine
 10
615.0
 20
150.0
 30
0.0
 11
615.0
 21
140.0
 31
0.0
  0
LINE
  5
5E6
330
61C
100
AcDbEntity
  8
Contour
100
AcDbLine
 10
669.5
 20
168.5
 30
0.0
 11
669.5
 21
166.7499999999999
 31
0.0
  0
LINE
  5
5E7
330
61C
100
AcDbEntity
  8
Contour
100
AcDbLine
 10
669.5
 20
173.25
 30
0.0
 11
669.5
 21
171.5
 31
0.0
  0
LINE
  5
5E8
330
61C
100
AcDbEntity
  8
Contour
100
AcDbLine
 10
653.25
 20
155.5
 30
0.0
 11
651.5
 21
155.5
 31
0.0
  0
LINE
  5
5E9
330
61C
100
AcDbEntity
  8
Contour
100
AcDbLine
 10
648.5
 20
155.5
 30
0.0
 11
646.75
 21
155.5
 31
0.0
  0
LINE
  5
5EA
330
61C
100
AcDbEntity
  8
Contour
100
AcDbLine
 10
646.75
 20
184.5
 30
0.0
 11
648.5
 21
184.5
 31
0.0
  0
LINE
  5
5EB
330
61C
100
AcDbEntity
  8
Contour
100
AcDbLine
 10
651.5
 20
184.5
 30
0.0
 11
653.25
 21
184.5
 31
0.0
  0
LINE
  5
5EC
330
61C
100
AcDbEntity
  8
Contour
100
AcDbLine
 10
630.5
 20
171.5
 30
0.0
 11
630.5
 21
173.25
 31
0.0
  0
LINE
  5
5ED
330
61C
100
AcDbEntity
  8
Contour
100
AcDbLine
 10
630.5
 20
166.75
 30
0.0
 11
630.5
 21
168.5
 31
0.0
  0
LINE
  5
5EE
330
61C
100
AcDbEntity
  8
Contour
100
AcDbLine
 10
669.5
 20
166.7499999999999
 30
0.0
 11
672.5
 21
166.75
 31
0.0
  0
LINE
  5
5EF
330
61C
100
AcDbEntity
  8
Contour
100
AcDbLine
 10
646.75
 20
155.5
 30
0.0
 11
646.75
 21
152.5
 31
0.0
  0
LINE
  5
5F0
330
61C
100
AcDbEntity
  8
Contour
100
AcDbLine
 10
653.25
 20
184.5
 30
0.0
 11
653.25
 21
187.5
 31
0.0
  0
LINE
  5
5F1
330
61C
100
AcDbEntity
  8
Contour
100
AcDbLine
 10
630.5
 20
173.25
 30
0.0
 11
627.5
 21
173.25
 31
0.0
  0
LINE
  5
5F2
330
61C
100
AcDbEntity
  8
Contour
100
AcDbLine
 10
672.5
 20
171.5
 30
0.0
 11
672.5
 21
173.25
 31
0.0
  0
LINE
  5
5F3
330
61C
100
AcDbEntity
  8
Contour
100
AcDbLine
 10
672.5
 20
166.75
 30
0.0
 11
672.5
 21
168.4999999999999
 31
0.0
  0
LINE
  5
5F4
330
61C
100
AcDbEntity
  8
Contour
100
AcDbLine
 10
651.5
 20
152.5
 30
0.0
 11
653.25
 21
152.5
 31
0.0
  0
LINE
  5
5F5
330
61C
100
AcDbEntity
  8
Contour
100
AcDbLine
 10
646.75
 20
152.5
 30
0.0
 11
648.5
 21
152.5
 31
0.0
  0
LINE
  5
5F6
330
61C
100
AcDbEntity
  8
Contour
100
AcDbLine
 10
648.5
 20
187.5
 30
0.0
 11
646.75
 21
187.5
 31
0.0
  0
LINE
  5
5F7
330
61C
100
AcDbEntity
  8
Contour
100
AcDbLine
 10
653.25
 20
187.5
 30
0.0
 11
651.5
 21
187.5
 31
0.0
  0
LINE
  5
5F8
330
61C
100
AcDbEntity
  8
Contour
100
AcDbLine
 10
627.5
 20
168.5
 30
0.0
 11
627.5
 21
166.75
 31
0.0
  0
LINE
  5
5F9
330
61C
100
AcDbEntity
  8
Contour
100
AcDbLine
 10
627.5
 20
173.25
 30
0.0
 11
627.5
 21
171.5
 31
0.0
  0
LINE
  5
5FA
330
61C
100
AcDbEntity
  8
Contour
100
AcDbLine
 10
672.5
 20
173.25
 30
0.0
 11
669.5
 21
173.25
 31
0.0
  0
LINE
  5
5FB
330
61C
100
AcDbEntity
  8
Contour
100
AcDbLine
 10
653.25
 20
152.5
 30
0.0
 11
653.25
 21
155.5
 31
0.0
  0
LINE
  5
5FC
330
61C
100
AcDbEntity
  8
Contour
100
AcDbLine
 10
646.75
 20
187.5
 30
0.0
 11
646.75
 21
184.5
 31
0.0
  0
LINE
  5
5FD
330
61C
100
AcDbEntity
  8
Contour
100
AcDbLine
 10
627.5
 20
166.75
 30
0.0
 11
630.5
 21
166.75
 31
0.0
  0
ENDSEC
  0
SECTION
  2
OBJECTS
  0
DICTIONARY
  5
60A
330
0
100
AcDbDictionary
281
     1
  3
ACAD_DETAILVIEWSTYLE
350
6E2
  3
ACAD_GROUP
350
60B
  3
ACAD_LAYOUT
350
617
  3
ACAD_MATERIAL
350
640
  3
ACAD_MLEADERSTYLE
350
668
  3
ACAD_MLINESTYLE
350
614
  3
ACAD_PLOTSETTINGS
350
616
  3
ACAD_PLOTSTYLENAME
350
60C
  3
ACAD_SCALELIST
350
644
  3
ACAD_SECTIONVIEWSTYLE
350
6E3
  3
ACAD_TABLESTYLE
350
666
  3
ACAD_VISUALSTYLE
350
627
  3
AcDbVariableDictionary
350
6DB
  3
ACDB_RECOMPOSE_DATA
350
6DF
  3
QCAD_OBJECTS
350
66C
  0
SUN
  5
66A
330
626
100
AcDbSun
 90
        1
290
     0
 63
     7
421
 16777215
 40
1.0
291
     1
 91
  2455826
 92
 54000000
292
     0
 70
     2
 71
   256
280
     1
  0
DICTIONARY
  5
6E2
102
{ACAD_REACTORS
330
60A
102
}
330
60A
100
AcDbDictionary
281
     1
  0
DICTIONARY
  5
60B
102
{ACAD_REACTORS
330
60A
102
}
330
60A
100
AcDbDictionary
281
     1
  0
DICTIONARY
  5
617
102
{ACAD_REACTORS
330
60A
102
}
330
60A
100
AcDbDictionary
281
     1
  3
Layout1
350
61B
  3
Layout2
350
623
  3
Model
350
61F
  0
DICTIONARY
  5
640
102
{ACAD_REACTORS
330
60A
102
}
330
60A
100
AcDbDictionary
281
     1
  3
ByBlock
350
642
  3
ByLayer
350
641
  3
Global
350
643
  0
DICTIONARY
  5
668
102
{ACAD_REACTORS
330
60A
102
}
330
60A
100
AcDbDictionary
281
     1
  3
Standard
350
669
  0
DICTIONARY
  5
614
102
{ACAD_REACTORS
330
60A
102
}
330
60A
100
AcDbDictionary
281
     1
  3
Standard
350
615
  0
DICTIONARY
  5
616
102
{ACAD_REACTORS
330
60A
102
}
330
60A
100
AcDbDictionary
281
     1
  0
ACDBDICTIONARYWDFLT
  5
60C
102
{ACAD_REACTORS
330
60A
102
}
330
60A
100
AcDbDictionary
281
     1
  3
Normal
350
60D
100
AcDbDictionaryWithDefault
340
60D
  0
DICTIONARY
  5
644
102
{ACAD_REACTORS
330
60A
102
}
330
60A
100
AcDbDictionary
281
     1
  3
A0
350
645
  3
A1
350
646
  3
A2
350
647
  3
A3
350
648
  3
A4
350
649
  3
A5
350
64A
  3
A6
350
64B
  3
A7
350
64C
  3
A8
350
64D
  3
A9
350
64E
  3
B0
350
64F
  3
B1
350
650
  3
B2
350
651
  3
B3
350
652
  3
B4
350
653
  3
B5
350
654
  3
B6
350
655
  3
B7
350
656
  3
B8
350
657
  3
B9
350
658
  3
C0
350
659
  3
C1
350
65A
  3
C2
350
65B
  3
C3
350
65C
  3
C4
350
65D
  3
C5
350
65E
  3
C6
350
65F
  3
C7
350
660
  3
C8
350
661
  3
C9
350
662
  3
D0
350
663
  3
D1
350
664
  3
D2
350
665
  0
DICTIONARY
  5
6E3
102
{ACAD_REACTORS
330
60A
102
}
330
60A
100
AcDbDictionary
281
     1
  0
DICTIONARY
  5
666
102
{ACAD_REACTORS
330
60A
102
}
330
60A
100
AcDbDictionary
281
     1
  3
Standard
350
667
  0
DICTIONARY
  5
627
102
{ACAD_REACTORS
330
60A
102
}
330
60A
100
AcDbDictionary
281
     1
  3
2dWireframe
350
62C
  3
Basic
350
62F
  3
Brighten
350
633
  3
ColorChange
350
637
  3
Conceptual
350
631
  3
Dim
350
632
  3
EdgeColorOff
350
63A
  3
Facepattern
350
636
  3
Flat
350
628
  3
FlatWithEdges
350
629
  3
Gouraud
350
62A
  3
GouraudWithEdges
350
62B
  3
Hidden
350
62E
  3
JitterOff
350
638
  3
Linepattern
350
635
  3
OverhangOff
350
639
  3
Realistic
350
630
  3
Shaded
350
63F
  3
Shaded with edges
350
63E
  3
Shades of Gray
350
63B
  3
Sketchy
350
63C
  3
Thicken
350
634
  3
Wireframe
350
62D
  3
X-Ray
350
63D
  0
DICTIONARY
  5
6DB
102
{ACAD_REACTORS
330
60A
102
}
330
60A
100
AcDbDictionary
281
     1
  3
CANNOSCALE
350
6DC
  3
CMLEADERSTYLE
350
6E1
  3
CTABLESTYLE
350
6E0
  0
XRECORD
  5
6DF
102
{ACAD_REACTORS
330
60A
102
}
330
60A
100
AcDbXrecord
280
     1
 90
        1
330
667
  0
DICTIONARY
  5
66C
102
{ACAD_REACTORS
330
60A
102
}
330
60A
100
AcDbDictionary
281
     1
  3
ColorSettings/BackgroundColor
350
66E
  3
ColorSettings/ColorMode
350
66F
  3
Grid/DisplayGrid00
350
670
  3
Grid/DisplayGrid01
350
671
  3
Grid/DisplayGrid02
350
672
  3
Grid/DisplayGrid03
350
673
  3
Grid/GridSpacingX00
350
674
  3
Grid/GridSpacingX01
350
675
  3
Grid/GridSpacingX02
350
676
  3
Grid/GridSpacingX03
350
677
  3
Grid/GridSpacingY00
350
678
  3
Grid/GridSpacingY01
350
679
  3
Grid/GridSpacingY02
350
67A
  3
Grid/GridSpacingY03
350
67B
  3
Grid/IsometricGrid00
350
67C
  3
Grid/IsometricGrid01
350
67D
  3
Grid/IsometricGrid02
350
67E
  3
Grid/IsometricGrid03
350
67F
  3
Grid/IsometricProjection00
350
680
  3
Grid/IsometricProjection01
350
681
  3
Grid/IsometricProjection02
350
682
  3
Grid/IsometricProjection03
350
683
  3
Grid/MetaGridSpacingX00
350
684
  3
Grid/MetaGridSpacingX01
350
685
  3
Grid/MetaGridSpacingX02
350
686
  3
Grid/MetaGridSpacingX03
350
687
  3
Grid/MetaGridSpacingY00
350
688
  3
Grid/MetaGridSpacingY01
350
689
  3
Grid/MetaGridSpacingY02
350
68A
  3
Grid/MetaGridSpacingY03
350
68B
  3
MultiPageSettings/Columns
350
68C
  3
MultiPageSettings/GlueMarginsBottom
350
68D
  3
MultiPageSettings/GlueMarginsLeft
350
68E
  3
MultiPageSettings/GlueMarginsRight
350
68F
  3
MultiPageSettings/GlueMarginsTop
350
690
  3
MultiPageSettings/PrintCropMarks
350
691
  3
MultiPageSettings/Rows
350
692
  3
PageSettings/OffsetX
350
693
  3
PageSettings/OffsetY
350
694
  3
PageSettings/PageOrientation
350
695
  3
PageSettings/PaperHeight
350
696
  3
PageSettings/PaperWidth
350
697
  3
PageSettings/Scale
350
698
  3
PageSettings/ShowPaperBorders
350
699
  3
QCADVersion
350
69A
  3
UnitSettings/PaperUnit
350
69B
  0
LAYOUT
  5
61B
102
{ACAD_REACTORS
330
617
102
}
330
617
100
AcDbPlotSettings
  1

  2
none_device
  4

  6

 40
0.0
 41
0.0
 42
0.0
 43
0.0
 44
0.0
 45
0.0
 46
0.0
 47
0.0
 48
0.0
 49
0.0
140
0.0
141
0.0
142
1.0
143
1.0
 70
   688
 72
     0
 73
     0
 74
     5
  7

 75
    16
 76
     0
 77
     2
 78
   300
147
1.0
148
0.0
149
0.0
100
AcDbLayout
  1
Layout1
 70
     1
 71
     1
 10
0.0
 20
0.0
 11
12.0
 21
9.0
 12
0.0
 22
0.0
 32
0.0
 14
1.000000000000000E+20
 24
1.000000000000000E+20
 34
1.000000000000000E+20
 15
-1.000000000000000E+20
 25
-1.000000000000000E+20
 35
-1.000000000000000E+20
146
0.0
 13
0.0
 23
0.0
 33
0.0
 16
1.0
 26
0.0
 36
0.0
 17
0.0
 27
1.0
 37
0.0
 76
     0
330
618
  0
LAYOUT
  5
623
102
{ACAD_REACTORS
330
617
102
}
330
617
100
AcDbPlotSettings
  1

  2
none_device
  4

  6

 40
0.0
 41
0.0
 42
0.0
 43
0.0
 44
0.0
 45
0.0
 46
0.0
 47
0.0
 48
0.0
 49
0.0
140
0.0
141
0.0
142
1.0
143
1.0
 70
   688
 72
     0
 73
     0
 74
     5
  7

 75
    16
 76
     0
 77
     2
 78
   300
147
1.0
148
0.0
149
0.0
100
AcDbLayout
  1
Layout2
 70
     1
 71
     2
 10
0.0
 20
0.0
 11
0.0
 21
0.0
 12
0.0
 22
0.0
 32
0.0
 14
0.0
 24
0.0
 34
0.0
 15
0.0
 25
0.0
 35
0.0
146
0.0
 13
0.0
 23
0.0
 33
0.0
 16
1.0
 26
0.0
 36
0.0
 17
0.0
 27
1.0
 37
0.0
 76
     0
330
620
  0
LAYOUT
  5
61F
102
{ACAD_REACTORS
330
617
102
}
330
617
100
AcDbPlotSettings
  1

  2
none_device
  4
Letter_(8.50_x_11.00_Inches)
  6

 40
6.35
 41
6.35
 42
6.35000508
 43
6.35000508
 44
215.9
 45
279.4
 46
0.0
 47
0.0
 48
0.0
 49
0.0
140
0.0
141
0.0
142
1.0
143
1.0
 70
  1712
 72
     0
 73
     0
 74
     0
  7

 75
     0
 76
     0
 77
     2
 78
   300
147
1.0
148
0.0
149
0.0
100
AcDbLayout
  1
Model
 70
     1
 71
     0
 10
0.0
 20
0.0
 11
12.0
 21
9.0
 12
0.0
 22
0.0
 32
0.0
 14
1.000000000000000E+20
 24
1.000000000000000E+20
 34
1.000000000000000E+20
 15
-1.000000000000000E+20
 25
-1.000000000000000E+20
 35
-1.000000000000000E+20
146
0.0
 13
0.0
 23
0.0
 33
0.0
 16
1.0
 26
0.0
 36
0.0
 17
0.0
 27
1.0
 37
0.0
 76
     0
330
61C
331
626
  0
MATERIAL
  5
642
102
{ACAD_REACTORS
330
640
102
}
330
640
100
AcDbMaterial
  1
ByBlock
 72
     1
 94
      127
  0
MATERIAL
  5
641
102
{ACAD_REACTORS
330
640
102
}
330
640
100
AcDbMaterial
  1
ByLayer
 72
     1
 94
      127
  0
MATERIAL
  5
643
102
{ACAD_REACTORS
330
640
102
}
330
640
100
AcDbMaterial
  1
Global
 72
     1
 94
      127
  0
MLEADERSTYLE
  5
669
102
{ACAD_REACTORS
330
668
102
}
330
668
100
AcDbMLeaderStyle
179
     2
170
     2
171
     1
172
     0
 90
        2
 40
0.0
 41
0.0
173
     1
 91
-1056964608
340
611
 92
       -2
290
     1
 42
0.09
291
     1
 43
0.36
  3
Standard
341
0
 44
0.18
300

342
60F
174
     1
178
     6
175
     1
176
     0
 93
-1056964608
 45
0.18
292
     0
297
     0
 46
0.18
343
0
 94
-1056964608
 47
1.0
 49
1.0
140
1.0
293
     1
141
0.0
294
     1
177
     0
142
1.0
295
     0
296
     0
143
0.125
271
     0
272
     9
273
     9
298
     0
  0
MLINESTYLE
  5
615
102
{ACAD_REACTORS
330
614
102
}
330
614
100
AcDbMlineStyle
  2
Standard
 70
     0
  3

 62
   256
 51
90.0
 52
90.0
 71
     2
 49
0.5
 62
   256
  6
BYLAYER
 49
-0.5
 62
   256
  6
BYLAYER
  0
ACDBPLACEHOLDER
  5
60D
102
{ACAD_REACTORS
330
60C
102
}
330
60C
  0
SCALE
  5
645
102
{ACAD_REACTORS
330
644
102
}
330
644
100
AcDbScale
 70
     0
300
1:1
140
1.0
141
1.0
290
     1
  0
SCALE
  5
646
102
{ACAD_REACTORS
330
644
102
}
330
644
100
AcDbScale
 70
     0
300
1:2
140
1.0
141
2.0
290
     0
  0
SCALE
  5
647
102
{ACAD_REACTORS
330
644
102
}
330
644
100
AcDbScale
 70
     0
300
1:4
140
1.0
141
4.0
290
     0
  0
SCALE
  5
648
102
{ACAD_REACTORS
330
644
102
}
330
644
100
AcDbScale
 70
     0
300
1:5
140
1.0
141
5.0
290
     0
  0
SCALE
  5
649
102
{ACAD_REACTORS
330
644
102
}
330
644
100
AcDbScale
 70
     0
300
1:8
140
1.0
141
8.0
290
     0
  0
SCALE
  5
64A
102
{ACAD_REACTORS
330
644
102
}
330
644
100
AcDbScale
 70
     0
300
1:10
140
1.0
141
10.0
290
     0
  0
SCALE
  5
64B
102
{ACAD_REACTORS
330
644
102
}
330
644
100
AcDbScale
 70
     0
300
1:16
140
1.0
141
16.0
290
     0
  0
SCALE
  5
64C
102
{ACAD_REACTORS
330
644
102
}
330
644
100
AcDbScale
 70
     0
300
1:20
140
1.0
141
20.0
290
     0
  0
SCALE
  5
64D
102
{ACAD_REACTORS
330
644
102
}
330
644
100
AcDbScale
 70
     0
300
1:30
140
1.0
141
30.0
290
     0
  0
SCALE
  5
64E
102
{ACAD_REACTORS
330
644
102
}
330
644
100
AcDbScale
 70
     0
300
1:40
140
1.0
141
40.0
290
     0
  0
SCALE
  5
64F
102
{ACAD_REACTORS
330
644
102
}
330
644
100
AcDbScale
 70
     0
300
1:50
140
1.0
141
50.0
290
     0
  0
SCALE
  5
650
102
{ACAD_REACTORS
330
644
102
}
330
644
100
AcDbScale
 70
     0
300
1:100
140
1.0
141
100.0
290
     0
  0
SCALE
  5
651
102
{ACAD_REACTORS
330
644
102
}
330
644
100
AcDbScale
 70
     0
300
2:1
140
2.0
141
1.0
290
     0
  0
SCALE
  5
652
102
{ACAD_REACTORS
330
644
102
}
330
644
100
AcDbScale
 70
     0
300
4:1
140
4.0
141
1.0
290
     0
  0
SCALE
  5
653
102
{ACAD_REACTORS
330
644
102
}
330
644
100
AcDbScale
 70
     0
300
8:1
140
8.0
141
1.0
290
     0
  0
SCALE
  5
654
102
{ACAD_REACTORS
330
644
102
}
330
644
100
AcDbScale
 70
     0
300
10:1
140
10.0
141
1.0
290
     0
  0
SCALE
  5
655
102
{ACAD_REACTORS
330
644
102
}
330
644
100
AcDbScale
 70
     0
300
100:1
140
100.0
141
1.0
290
     0
  0
SCALE
  5
656
102
{ACAD_REACTORS
330
644
102
}
330
644
100
AcDbScale
 70
     0
300
1/128" = 1'-0"
140
0.0078125
141
12.0
290
     0
  0
SCALE
  5
657
102
{ACAD_REACTORS
330
644
102
}
330
644
100
AcDbScale
 70
     0
300
1/64" = 1'-0"
140
0.015625
141
12.0
290
     0
  0
SCALE
  5
658
102
{ACAD_REACTORS
330
644
102
}
330
644
100
AcDbScale
 70
     0
300
1/32" = 1'-0"
140
0.03125
141
12.0
290
     0
  0
SCALE
  5
659
102
{ACAD_REACTORS
330
644
102
}
330
644
100
AcDbScale
 70
     0
300
1/16" = 1'-0"
140
0.0625
141
12.0
290
     0
  0
SCALE
  5
65A
102
{ACAD_REACTORS
330
644
102
}
330
644
100
AcDbScale
 70
     0
300
3/32" = 1'-0"
140
0.09375
141
12.0
290
     0
  0
SCALE
  5
65B
102
{ACAD_REACTORS
330
644
102
}
330
644
100
AcDbScale
 70
     0
300
1/8" = 1'-0"
140
0.125
141
12.0
290
     0
  0
SCALE
  5
65C
102
{ACAD_REACTORS
330
644
102
}
330
644
100
AcDbScale
 70
     0
300
3/16" = 1'-0"
140
0.1875
141
12.0
290
     0
  0
SCALE
  5
65D
102
{ACAD_REACTORS
330
644
102
}
330
644
100
AcDbScale
 70
     0
300
1/4" = 1'-0"
140
0.25
141
12.0
290
     0
  0
SCALE
  5
65E
102
{ACAD_REACTORS
330
644
102
}
330
644
100
AcDbScale
 70
     0
300
3/8" = 1'-0"
140
0.375
141
12.0
290
     0
  0
SCALE
  5
65F
102
{ACAD_REACTORS
330
644
102
}
330
644
100
AcDbScale
 70
     0
300
1/2" = 1'-0"
140
0.5
141
12.0
290
     0
  0
SCALE
  5
660
102
{ACAD_REACTORS
330
644
102
}
330
644
100
AcDbScale
 70
     0
300
3/4" = 1'-0"
140
0.75
141
12.0
290
     0
  0
SCALE
  5
661
102
{ACAD_REACTORS
330
644
102
}
330
644
100
AcDbScale
 70
     0
300
1" = 1'-0"
140
1.0
141
12.0
290
     0
  0
SCALE
  5
662
102
{ACAD_REACTORS
330
644
102
}
330
644
100
AcDbScale
 70
     0
300
1-1/2" = 1'-0"
140
1.5
141
12.0
290
     0
  0
SCALE
  5
663
102
{ACAD_REACTORS
330
644
102
}
330
644
100
AcDbScale
 70
     0
300
3" = 1'-0"
140
3.0
141
12.0
290
     0
  0
SCALE
  5
664
102
{ACAD_REACTORS
330
644
102
}
330
644
100
AcDbScale
 70
     0
300
6" = 1'-0"
140
6.0
141
12.0
290
     0
  0
SCALE
  5
665
102
{ACAD_REACTORS
330
644
102
}
330
644
100
AcDbScale
 70
     0
300
1'-0" = 1'-0"
140
12.0
141
12.0
290
     0
  0
TABLESTYLE
  5
667
102
{ACAD_REACTORS
330
666
102
}
102
{ACAD_XDICTIONARY
360
6DD
102
}
330
666
100
AcDbTableStyle
  3
Standard
 70
     0
 71
     0
 40
0.06
 41
0.06
280
     0
281
     0
  7
Standard
140
0.18
170
     2
 62
     0
 63
   257
283
     0
 90
        4
 91
        0
  1

274
    -2
284
     1
 64
     0
275
    -2
285
     1
 65
     0
276
    -2
286
     1
 66
     0
277
    -2
287
     1
 67
     0
278
    -2
288
     1
 68
     0
279
    -2
289
     1
 69
     0
  7
Standard
140
0.25
170
     5
 62
     0
 63
   257
283
     0
 90
        4
 91
        0
  1

274
    -2
284
     1
 64
     0
275
    -2
285
     1
 65
     0
276
    -2
286
     1
 66
     0
277
    -2
287
     1
 67
     0
278
    -2
288
     1
 68
     0
279
    -2
289
     1
 69
     0
  7
Standard
140
0.18
170
     5
 62
     0
 63
   257
283
     0
 90
        4
 91
        0
  1

274
    -2
284
     1
 64
     0
275
    -2
285
     1
 65
     0
276
    -2
286
     1
 66
     0
277
    -2
287
     1
 67
     0
278
    -2
288
     1
 68
     0
279
    -2
289
     1
 69
     0
  0
VISUALSTYLE
  5
62C
102
{ACAD_REACTORS
330
627
102
}
330
627
100
AcDbVisualStyle
  2
2dWireframe
 70
     4
177
     3
291
     0
 70
    58
 90
        0
176
     1
 90
        2
176
     1
 90
        0
176
     1
 90
        0
176
     1
 40
0.6
176
     1
 40
30.0
176
     1
 62
     7
420
 16777215
176
     1
 90
        1
176
     1
 90
        4
176
     1
 62
     7
176
     1
 62
   257
176
     1
 90
        1
176
     1
 90
        1
176
     1
 40
1.0
176
     1
 90
        0
176
     1
 62
   257
176
     1
 40
1.0
176
     1
 90
        1
176
     1
 90
        6
176
     1
 90
        2
176
     1
 62
     7
176
     1
 90
        5
176
     1
 90
        0
176
     1
 90
        0
176
     1
290
     0
176
     1
 90
        1
176
     1
 40
0.0
176
     1
 90
        0
176
     1
290
     1
176
     1
290
     1
176
     1
290
     0
176
     1
290
     0
176
     1
290
     0
176
     1
290
     0
176
     1
290
     0
176
     1
290
     0
176
     1
290
     0
176
     1
 90
       50
176
     1
 40
0.0
176
     1
 40
1.0
176
     1
 90
        0
176
     1
 62
   178
420
        0
176
     1
 90
       50
176
     1
 90
        3
176
     1
 62
     5
420
      255
176
     1
290
     0
176
     1
 90
       50
176
     1
 90
       50
176
     1
 90
       50
176
     1
290
     0
176
     1
 90
       50
176
     1
 62
   256
176
     0
 40
1.0
176
     0
 90
        2
176
     1
  1
strokes_ogs.tif
176
     1
290
     0
176
     1
 40
1.0
176
     1
 40
1.0
176
     1
  0
VISUALSTYLE
  5
62F
102
{ACAD_REACTORS
330
627
102
}
330
627
100
AcDbVisualStyle
  2
Basic
 70
     7
177
     3
291
     1
 70
    58
 90
        1
176
     1
 90
        0
176
     1
 90
        1
176
     1
 90
        0
176
     1
 40
0.6
176
     1
 40
30.0
176
     1
 62
     7
420
 16777215
176
     1
 90
        0
176
     1
 90
        4
176
     1
 62
     7
176
     1
 62
   257
176
     1
 90
        1
176
     1
 90
        1
176
     1
 40
1.0
176
     1
 90
        8
176
     1
 62
     7
176
     1
 40
1.0
176
     1
 90
        1
176
     1
 90
        6
176
     1
 90
        2
176
     1
 62
     7
176
     1
 90
        5
176
     1
 90
        0
176
     1
 90
        0
176
     1
290
     0
176
     1
 90
        1
176
     1
 40
0.0
176
     1
 90
        0
176
     1
290
     0
176
     1
290
     1
176
     1
290
     1
176
     1
290
     0
176
     1
290
     0
176
     1
290
     0
176
     1
290
     0
176
     1
290
     0
176
     1
290
     0
176
     1
 90
       50
176
     1
 40
0.0
176
     1
 40
1.0
176
     1
 90
        0
176
     1
 62
   178
420
        0
176
     1
 90
       50
176
     1
 90
        3
176
     1
 62
     5
420
      255
176
     1
290
     0
176
     1
 90
       50
176
     1
 90
       50
176
     1
 90
       50
176
     1
290
     0
176
     1
 90
       50
176
     1
 62
   256
176
     0
 40
1.0
176
     0
 90
        2
176
     1
  1
strokes_ogs.tif
176
     1
290
     0
176
     1
 40
1.0
176
     1
 40
1.0
176
     1
  0
VISUALSTYLE
  5
633
102
{ACAD_REACTORS
330
627
102
}
330
627
100
AcDbVisualStyle
  2
Brighten
 70
    12
177
     3
291
     1
 70
    58
 90
        2
176
     1
 90
        2
176
     1
 90
        0
176
     1
 90
        0
176
     1
 40
0.6
176
     1
 40
30.0
176
     1
 62
     7
420
 16777215
176
     1
 90
        1
176
     1
 90
        4
176
     1
 62
     7
176
     1
 62
   257
176
     1
 90
        1
176
     1
 90
        1
176
     1
 40
1.0
176
     1
 90
        8
176
     1
 62
     7
176
     1
 40
1.0
176
     1
 90
        1
176
     1
 90
        6
176
     1
 90
        2
176
     1
 62
     7
176
     1
 90
        5
176
     1
 90
        0
176
     1
 90
        0
176
     1
290
     0
176
     1
 90
        1
176
     1
 40
50.0
176
     1
 90
        0
176
     1
290
     0
176
     1
290
     1
176
     1
290
     1
176
     1
290
     0
176
     1
290
     0
176
     1
290
     0
176
     1
290
     0
176
     1
290
     0
176
     1
290
     0
176
     1
 90
       50
176
     1
 40
0.0
176
     1
 40
1.0
176
     1
 90
        0
176
     1
 62
   178
420
        0
176
     1
 90
       50
176
     1
 90
        3
176
     1
 62
     5
420
      255
176
     1
290
     0
176
     1
 90
       50
176
     1
 90
       50
176
     1
 90
       50
176
     1
290
     0
176
     1
 90
       50
176
     1
 62
   256
176
     0
 40
1.0
176
     0
 90
        2
176
     1
  1
strokes_ogs.tif
176
     1
290
     0
176
     1
 40
1.0
176
     1
 40
1.0
176
     1
  0
VISUALSTYLE
  5
637
102
{ACAD_REACTORS
330
627
102
}
330
627
100
AcDbVisualStyle
  2
ColorChange
 70
    16
177
     3
291
     1
 70
    58
 90
        2
176
     1
 90
        2
176
     1
 90
        3
176
     1
 90
        0
176
     1
 40
0.6
176
     1
 40
30.0
176
     1
 62
     8
420
  8421504
176
     1
 90
        1
176
     1
 90
        4
176
     1
 62
     7
176
     1
 62
   257
176
     1
 90
        1
176
     1
 90
        1
176
     1
 40
1.0
176
     1
 90
        8
176
     1
 62
     8
420
  8421504
176
     1
 40
1.0
176
     1
 90
        1
176
     1
 90
        6
176
     1
 90
        2
176
     1
 62
     7
176
     1
 90
        5
176
     1
 90
        0
176
     1
 90
        0
176
     1
290
     0
176
     1
 90
        1
176
     1
 40
0.0
176
     1
 90
        0
176
     1
290
     0
176
     1
290
     1
176
     1
290
     1
176
     1
290
     0
176
     1
290
     0
176
     1
290
     0
176
     1
290
     0
176
     1
290
     0
176
     1
290
     0
176
     1
 90
       50
176
     1
 40
0.0
176
     1
 40
1.0
176
     1
 90
        0
176
     1
 62
   178
420
        0
176
     1
 90
       50
176
     1
 90
        3
176
     1
 62
     5
420
      255
176
     1
290
     0
176
     1
 90
       50
176
     1
 90
       50
176
     1
 90
       50
176
     1
290
     0
176
     1
 90
       50
176
     1
 62
   256
176
     0
 40
1.0
176
     0
 90
        2
176
     1
  1
strokes_ogs.tif
176
     1
290
     0
176
     1
 40
1.0
176
     1
 40
1.0
176
     1
  0
VISUALSTYLE
  5
631
102
{ACAD_REACTORS
330
627
102
}
330
627
100
AcDbVisualStyle
  2
Conceptual
 70
     9
177
     3
291
     0
 70
    58
 90
        3
176
     1
 90
        2
176
     1
 90
        0
176
     1
 90
        0
176
     1
 40
0.6
176
     1
 40
30.0
176
     1
 62
     7
420
 16777215
176
     1
 90
        2
176
     1
 90
        2
176
     1
 62
     7
176
     1
 62
   257
176
     1
 90
        1
176
     1
 90
        1
176
     1
 40
179.0
176
     1
 90
        8
176
     1
 62
     7
176
     1
 40
1.0
176
     1
 90
        1
176
     1
 90
        6
176
     1
 90
        2
176
     1
 62
     7
176
     1
 90
        3
176
     1
 90
        0
176
     1
 90
        0
176
     1
290
     0
176
     1
 90
        1
176
     1
 40
0.0
176
     1
 90
        0
176
     1
290
     0
176
     1
290
     1
176
     1
290
     1
176
     1
290
     0
176
     1
290
     0
176
     1
290
     0
176
     1
290
     0
176
     1
290
     0
176
     1
290
     0
176
     1
 90
       50
176
     1
 40
0.0
176
     1
 40
1.0
176
     1
 90
        0
176
     1
 62
   178
420
        0
176
     1
 90
       50
176
     1
 90
        3
176
     1
 62
     5
420
      255
176
     1
290
     0
176
     1
 90
       50
176
     1
 90
       50
176
     1
 90
       50
176
     1
290
     0
176
     1
 90
       50
176
     1
 62
   256
176
     0
 40
1.0
176
     0
 90
        2
176
     1
  1
strokes_ogs.tif
176
     1
290
     0
176
     1
 40
1.0
176
     1
 40
1.0
176
     1
  0
VISUALSTYLE
  5
632
102
{ACAD_REACTORS
330
627
102
}
330
627
100
AcDbVisualStyle
  2
Dim
 70
    11
177
     3
291
     1
 70
    58
 90
        2
176
     1
 90
        2
176
     1
 90
        0
176
     1
 90
        0
176
     1
 40
0.6
176
     1
 40
30.0
176
     1
 62
     7
420
 16777215
176
     1
 90
        1
176
     1
 90
        4
176
     1
 62
     7
176
     1
 62
   257
176
     1
 90
        1
176
     1
 90
        1
176
     1
 40
1.0
176
     1
 90
        8
176
     1
 62
     7
176
     1
 40
1.0
176
     1
 90
        1
176
     1
 90
        6
176
     1
 90
        2
176
     1
 62
     7
176
     1
 90
        5
176
     1
 90
        0
176
     1
 90
        0
176
     1
290
     0
176
     1
 90
        1
176
     1
 40
-50.0
176
     1
 90
        0
176
     1
290
     0
176
     1
290
     1
176
     1
290
     1
176
     1
290
     0
176
     1
290
     0
176
     1
290
     0
176
     1
290
     0
176
     1
290
     0
176
     1
290
     0
176
     1
 90
       50
176
     1
 40
0.0
176
     1
 40
1.0
176
     1
 90
        0
176
     1
 62
   178
420
        0
176
     1
 90
       50
176
     1
 90
        3
176
     1
 62
     5
420
      255
176
     1
290
     0
176
     1
 90
       50
176
     1
 90
       50
176
     1
 90
       50
176
     1
290
     0
176
     1
 90
       50
176
     1
 62
   256
176
     0
 40
1.0
176
     0
 90
        2
176
     1
  1
strokes_ogs.tif
176
     1
290
     0
176
     1
 40
1.0
176
     1
 40
1.0
176
     1
  0
VISUALSTYLE
  5
63A
102
{ACAD_REACTORS
330
627
102
}
330
627
100
AcDbVisualStyle
  2
EdgeColorOff
 70
    22
177
     3
291
     1
 70
    58
 90
        2
176
     0
 90
        2
176
     0
 90
        0
176
     0
 90
        0
176
     0
 40
0.6
176
     0
 40
30.0
176
     0
 62
     7
420
 16777215
176
     0
 90
        1
176
     0
 90
        4
176
     0
 62
     7
176
     0
 62
   257
176
     0
 90
        1
176
     0
 90
        1
176
     0
 40
1.0
176
     0
 90
        8
176
     2
 62
     7
176
     0
 40
1.0
176
     0
 90
        1
176
     0
 90
        6
176
     0
 90
        2
176
     0
 62
     7
176
     0
 90
        5
176
     0
 90
        0
176
     0
 90
        0
176
     0
290
     0
176
     0
 90
        1
176
     0
 40
0.0
176
     0
 90
        0
176
     0
290
     0
176
     0
290
     1
176
     0
290
     1
176
     0
290
     0
176
     0
290
     0
176
     0
290
     0
176
     0
290
     0
176
     0
290
     0
176
     0
290
     0
176
     0
 90
       50
176
     0
 40
0.0
176
     0
 40
1.0
176
     0
 90
        0
176
     0
 62
   178
420
        0
176
     0
 90
       50
176
     0
 90
        3
176
     0
 62
     5
420
      255
176
     0
290
     0
176
     0
 90
       50
176
     0
 90
       50
176
     0
 90
       50
176
     0
290
     0
176
     0
 90
       50
176
     0
 62
   256
176
     0
 40
1.0
176
     0
 90
        2
176
     0
  1
strokes_ogs.tif
176
     0
290
     0
176
     0
 40
1.0
176
     0
 40
1.0
176
     0
  0
VISUALSTYLE
  5
636
102
{ACAD_REACTORS
330
627
102
}
330
627
100
AcDbVisualStyle
  2
Facepattern
 70
    15
177
     3
291
     1
 70
    58
 90
        2
176
     1
 90
        2
176
     1
 90
        0
176
     1
 90
        0
176
     1
 40
0.6
176
     1
 40
30.0
176
     1
 62
     7
420
 16777215
176
     1
 90
        1
176
     1
 90
        4
176
     1
 62
     7
176
     1
 62
   257
176
     1
 90
        1
176
     1
 90
        1
176
     1
 40
1.0
176
     1
 90
        8
176
     1
 62
     7
176
     1
 40
1.0
176
     1
 90
        1
176
     1
 90
        6
176
     1
 90
        2
176
     1
 62
     7
176
     1
 90
        5
176
     1
 90
        0
176
     1
 90
        0
176
     1
290
     0
176
     1
 90
        1
176
     1
 40
0.0
176
     1
 90
        0
176
     1
290
     0
176
     1
290
     1
176
     1
290
     1
176
     1
290
     0
176
     1
290
     0
176
     1
290
     0
176
     1
290
     0
176
     1
290
     0
176
     1
290
     0
176
     1
 90
       50
176
     1
 40
0.0
176
     1
 40
1.0
176
     1
 90
        0
176
     1
 62
   178
420
        0
176
     1
 90
       50
176
     1
 90
        3
176
     1
 62
     5
420
      255
176
     1
290
     0
176
     1
 90
       50
176
     1
 90
       50
176
     1
 90
       50
176
     1
290
     0
176
     1
 90
       50
176
     1
 62
   256
176
     0
 40
1.0
176
     0
 90
        2
176
     1
  1
strokes_ogs.tif
176
     1
290
     0
176
     1
 40
1.0
176
     1
 40
1.0
176
     1
  0
VISUALSTYLE
  5
628
102
{ACAD_REACTORS
330
627
102
}
330
627
100
AcDbVisualStyle
  2
Flat
 70
     0
177
     3
291
     1
 70
    58
 90
        2
176
     1
 90
        1
176
     1
 90
        1
176
     1
 90
        2
176
     1
 40
0.6
176
     1
 40
30.0
176
     1
 62
     7
420
 16777215
176
     1
 90
        0
176
     1
 90
        0
176
     1
 62
     7
176
     1
 62
   257
176
     1
 90
        1
176
     1
 90
        1
176
     1
 40
1.0
176
     1
 90
        8
176
     1
 62
     7
176
     1
 40
1.0
176
     1
 90
        1
176
     1
 90
        6
176
     1
 90
        2
176
     1
 62
     7
176
     1
 90
        5
176
     1
 90
        0
176
     1
 90
        0
176
     1
290
     0
176
     1
 90
       13
176
     1
 40
0.0
176
     1
 90
        0
176
     1
290
     0
176
     1
290
     1
176
     1
290
     1
176
     1
290
     0
176
     1
290
     0
176
     1
290
     0
176
     1
290
     0
176
     1
290
     0
176
     1
290
     0
176
     1
 90
       50
176
     1
 40
0.0
176
     1
 40
1.0
176
     1
 90
        0
176
     1
 62
   178
420
        0
176
     1
 90
       50
176
     1
 90
        3
176
     1
 62
     5
420
      255
176
     1
290
     0
176
     1
 90
       50
176
     1
 90
       50
176
     1
 90
       50
176
     1
290
     0
176
     1
 90
       50
176
     1
 62
   256
176
     0
 40
1.0
176
     0
 90
        2
176
     1
  1
strokes_ogs.tif
176
     1
290
     0
176
     1
 40
1.0
176
     1
 40
1.0
176
     1
  0
VISUALSTYLE
  5
629
102
{ACAD_REACTORS
330
627
102
}
330
627
100
AcDbVisualStyle
  2
FlatWithEdges
 70
     1
177
     3
291
     1
 70
    58
 90
        2
176
     1
 90
        1
176
     1
 90
        1
176
     1
 90
        2
176
     1
 40
0.6
176
     1
 40
30.0
176
     1
 62
     7
420
 16777215
176
     1
 90
        1
176
     1
 90
        0
176
     1
 62
     7
176
     1
 62
   257
176
     1
 90
        1
176
     1
 90
        1
176
     1
 40
1.0
176
     1
 90
        0
176
     1
 62
   257
176
     1
 40
1.0
176
     1
 90
        1
176
     1
 90
        6
176
     1
 90
        2
176
     1
 62
     7
176
     1
 90
        5
176
     1
 90
        0
176
     1
 90
        0
176
     1
290
     0
176
     1
 90
       13
176
     1
 40
0.0
176
     1
 90
        0
176
     1
290
     0
176
     1
290
     1
176
     1
290
     1
176
     1
290
     0
176
     1
290
     0
176
     1
290
     0
176
     1
290
     0
176
     1
290
     0
176
     1
290
     0
176
     1
 90
       50
176
     1
 40
0.0
176
     1
 40
1.0
176
     1
 90
        0
176
     1
 62
   178
420
        0
176
     1
 90
       50
176
     1
 90
        3
176
     1
 62
     5
420
      255
176
     1
290
     0
176
     1
 90
       50
176
     1
 90
       50
176
     1
 90
       50
176
     1
290
     0
176
     1
 90
       50
176
     1
 62
   256
176
     0
 40
1.0
176
     0
 90
        2
176
     1
  1
strokes_ogs.tif
176
     1
290
     0
176
     1
 40
1.0
176
     1
 40
1.0
176
     1
  0
VISUALSTYLE
  5
62A
102
{ACAD_REACTORS
330
627
102
}
330
627
100
AcDbVisualStyle
  2
Gouraud
 70
     2
177
     3
291
     1
 70
    58
 90
        2
176
     1
 90
        2
176
     1
 90
        1
176
     1
 90
        2
176
     1
 40
0.6
176
     1
 40
30.0
176
     1
 62
     7
420
 16777215
176
     1
 90
        0
176
     1
 90
        0
176
     1
 62
     7
176
     1
 62
   257
176
     1
 90
        1
176
     1
 90
        1
176
     1
 40
1.0
176
     1
 90
        0
176
     1
 62
     7
176
     1
 40
1.0
176
     1
 90
        1
176
     1
 90
        6
176
     1
 90
        2
176
     1
 62
     7
176
     1
 90
        5
176
     1
 90
        0
176
     1
 90
        0
176
     1
290
     0
176
     1
 90
       13
176
     1
 40
0.0
176
     1
 90
        0
176
     1
290
     0
176
     1
290
     1
176
     1
290
     1
176
     1
290
     0
176
     1
290
     0
176
     1
290
     0
176
     1
290
     0
176
     1
290
     0
176
     1
290
     0
176
     1
 90
       50
176
     1
 40
0.0
176
     1
 40
1.0
176
     1
 90
        0
176
     1
 62
   178
420
        0
176
     1
 90
       50
176
     1
 90
        3
176
     1
 62
     5
420
      255
176
     1
290
     0
176
     1
 90
       50
176
     1
 90
       50
176
     1
 90
       50
176
     1
290
     0
176
     1
 90
       50
176
     1
 62
   256
176
     0
 40
1.0
176
     0
 90
        2
176
     1
  1
strokes_ogs.tif
176
     1
290
     0
176
     1
 40
1.0
176
     1
 40
1.0
176
     1
  0
VISUALSTYLE
  5
62B
102
{ACAD_REACTORS
330
627
102
}
330
627
100
AcDbVisualStyle
  2
GouraudWithEdges
 70
     3
177
     3
291
     1
 70
    58
 90
        2
176
     1
 90
        2
176
     1
 90
        1
176
     1
 90
        2
176
     1
 40
0.6
176
     1
 40
30.0
176
     1
 62
     7
420
 16777215
176
     1
 90
        1
176
     1
 90
        0
176
     1
 62
     7
176
     1
 62
   257
176
     1
 90
        1
176
     1
 90
        1
176
     1
 40
1.0
176
     1
 90
        0
176
     1
 62
   257
176
     1
 40
1.0
176
     1
 90
        1
176
     1
 90
        6
176
     1
 90
        2
176
     1
 62
     7
176
     1
 90
        5
176
     1
 90
        0
176
     1
 90
        0
176
     1
290
     0
176
     1
 90
       13
176
     1
 40
0.0
176
     1
 90
        0
176
     1
290
     0
176
     1
290
     1
176
     1
290
     1
176
     1
290
     0
176
     1
290
     0
176
     1
290
     0
176
     1
290
     0
176
     1
290
     0
176
     1
290
     0
176
     1
 90
       50
176
     1
 40
0.0
176
     1
 40
1.0
176
     1
 90
        0
176
     1
 62
   178
420
        0
176
     1
 90
       50
176
     1
 90
        3
176
     1
 62
     5
420
      255
176
     1
290
     0
176
     1
 90
       50
176
     1
 90
       50
176
     1
 90
       50
176
     1
290
     0
176
     1
 90
       50
176
     1
 62
   256
176
     0
 40
1.0
176
     0
 90
        2
176
     1
  1
strokes_ogs.tif
176
     1
290
     0
176
     1
 40
1.0
176
     1
 40
1.0
176
     1
  0
VISUALSTYLE
  5
62E
102
{ACAD_REACTORS
330
627
102
}
330
627
100
AcDbVisualStyle
  2
Hidden
 70
     6
177
     3
291
     0
 70
    58
 90
        1
176
     1
 90
        2
176
     1
 90
        2
176
     1
 90
        0
176
     1
 40
0.6
176
     1
 40
30.0
176
     1
 62
     7
420
 16777215
176
     1
 90
        2
176
     1
 90
        2
176
     1
 62
     7
176
     1
 62
   257
176
     1
 90
        2
176
     1
 90
        1
176
     1
 40
40.0
176
     1
 90
        0
176
     1
 62
   257
176
     1
 40
1.0
176
     1
 90
        1
176
     1
 90
        6
176
     1
 90
        2
176
     1
 62
     7
176
     1
 90
        3
176
     1
 90
        0
176
     1
 90
        0
176
     1
290
     0
176
     1
 90
        1
176
     1
 40
0.0
176
     1
 90
        0
176
     1
290
     0
176
     1
290
     1
176
     1
290
     1
176
     1
290
     0
176
     1
290
     0
176
     1
290
     0
176
     1
290
     0
176
     1
290
     0
176
     1
290
     0
176
     1
 90
       50
176
     1
 40
0.0
176
     1
 40
1.0
176
     1
 90
        0
176
     1
 62
   178
420
        0
176
     1
 90
       50
176
     1
 90
        3
176
     1
 62
     5
420
      255
176
     1
290
     0
176
     1
 90
       50
176
     1
 90
       50
176
     1
 90
       50
176
     1
290
     0
176
     1
 90
       50
176
     1
 62
   256
176
     0
 40
1.0
176
     0
 90
        2
176
     1
  1
strokes_ogs.tif
176
     1
290
     0
176
     1
 40
1.0
176
     1
 40
1.0
176
     1
  0
VISUALSTYLE
  5
638
102
{ACAD_REACTORS
330
627
102
}
330
627
100
AcDbVisualStyle
  2
JitterOff
 70
    20
177
     3
291
     1
 70
    58
 90
        2
176
     0
 90
        2
176
     0
 90
        0
176
     0
 90
        0
176
     0
 40
0.6
176
     0
 40
30.0
176
     0
 62
     7
420
 16777215
176
     0
 90
        1
176
     0
 90
        4
176
     0
 62
     7
176
     0
 62
   257
176
     0
 90
        1
176
     0
 90
        1
176
     0
 40
1.0
176
     0
 90
       10
176
     2
 62
     7
176
     0
 40
1.0
176
     0
 90
        1
176
     0
 90
        6
176
     0
 90
        2
176
     0
 62
     7
176
     0
 90
        5
176
     0
 90
        0
176
     0
 90
        0
176
     0
290
     0
176
     0
 90
        1
176
     0
 40
0.0
176
     0
 90
        0
176
     0
290
     0
176
     0
290
     1
176
     0
290
     1
176
     0
290
     0
176
     0
290
     0
176
     0
290
     0
176
     0
290
     0
176
     0
290
     0
176
     0
290
     0
176
     0
 90
       50
176
     0
 40
0.0
176
     0
 40
1.0
176
     0
 90
        0
176
     0
 62
   178
420
        0
176
     0
 90
       50
176
     0
 90
        3
176
     0
 62
     5
420
      255
176
     0
290
     0
176
     0
 90
       50
176
     0
 90
       50
176
     0
 90
       50
176
     0
290
     0
176
     0
 90
       50
176
     0
 62
   256
176
     0
 40
1.0
176
     0
 90
        2
176
     0
  1
strokes_ogs.tif
176
     0
290
     0
176
     0
 40
1.0
176
     0
 40
1.0
176
     0
  0
VISUALSTYLE
  5
635
102
{ACAD_REACTORS
330
627
102
}
330
627
100
AcDbVisualStyle
  2
Linepattern
 70
    14
177
     3
291
     1
 70
    58
 90
        2
176
     1
 90
        2
176
     1
 90
        0
176
     1
 90
        0
176
     1
 40
0.6
176
     1
 40
30.0
176
     1
 62
     7
420
 16777215
176
     1
 90
        1
176
     1
 90
        4
176
     1
 62
     7
176
     1
 62
   257
176
     1
 90
        7
176
     1
 90
        7
176
     1
 40
1.0
176
     1
 90
        8
176
     1
 62
     7
176
     1
 40
1.0
176
     1
 90
        1
176
     1
 90
        6
176
     1
 90
        2
176
     1
 62
     7
176
     1
 90
        5
176
     1
 90
        0
176
     1
 90
        0
176
     1
290
     0
176
     1
 90
        1
176
     1
 40
0.0
176
     1
 90
        0
176
     1
290
     0
176
     1
290
     1
176
     1
290
     1
176
     1
290
     0
176
     1
290
     0
176
     1
290
     0
176
     1
290
     0
176
     1
290
     0
176
     1
290
     0
176
     1
 90
       50
176
     1
 40
0.0
176
     1
 40
1.0
176
     1
 90
        0
176
     1
 62
   178
420
        0
176
     1
 90
       50
176
     1
 90
        3
176
     1
 62
     5
420
      255
176
     1
290
     0
176
     1
 90
       50
176
     1
 90
       50
176
     1
 90
       50
176
     1
290
     0
176
     1
 90
       50
176
     1
 62
   256
176
     0
 40
1.0
176
     0
 90
        2
176
     1
  1
strokes_ogs.tif
176
     1
290
     0
176
     1
 40
1.0
176
     1
 40
1.0
176
     1
  0
VISUALSTYLE
  5
639
102
{ACAD_REACTORS
330
627
102
}
330
627
100
AcDbVisualStyle
  2
OverhangOff
 70
    21
177
     3
291
     1
 70
    58
 90
        2
176
     0
 90
        2
176
     0
 90
        0
176
     0
 90
        0
176
     0
 40
0.6
176
     0
 40
30.0
176
     0
 62
     7
420
 16777215
176
     0
 90
        1
176
     0
 90
        4
176
     0
 62
     7
176
     0
 62
   257
176
     0
 90
        1
176
     0
 90
        1
176
     0
 40
1.0
176
     0
 90
        9
176
     2
 62
     7
176
     0
 40
1.0
176
     0
 90
        1
176
     0
 90
        6
176
     0
 90
        2
176
     0
 62
     7
176
     0
 90
        5
176
     0
 90
        0
176
     0
 90
        0
176
     0
290
     0
176
     0
 90
        1
176
     0
 40
0.0
176
     0
 90
        0
176
     0
290
     0
176
     0
290
     1
176
     0
290
     1
176
     0
290
     0
176
     0
290
     0
176
     0
290
     0
176
     0
290
     0
176
     0
290
     0
176
     0
290
     0
176
     0
 90
       50
176
     0
 40
0.0
176
     0
 40
1.0
176
     0
 90
        0
176
     0
 62
   178
420
        0
176
     0
 90
       50
176
     0
 90
        3
176
     0
 62
     5
420
      255
176
     0
290
     0
176
     0
 90
       50
176
     0
 90
       50
176
     0
 90
       50
176
     0
290
     0
176
     0
 90
       50
176
     0
 62
   256
176
     0
 40
1.0
176
     0
 90
        2
176
     0
  1
strokes_ogs.tif
176
     0
290
     0
176
     0
 40
1.0
176
     0
 40
1.0
176
     0
  0
VISUALSTYLE
  5
630
102
{ACAD_REACTORS
330
627
102
}
330
627
100
AcDbVisualStyle
  2
Realistic
 70
     8
177
     3
291
     0
 70
    58
 90
        2
176
     1
 90
        3
176
     1
 90
        0
176
     1
 90
        2
176
     1
 40
0.6
176
     1
 40
30.0
176
     1
 62
     7
420
 16777215
176
     1
 90
        0
176
     1
 90
        0
176
     1
 62
     7
176
     1
 62
   257
176
     1
 90
        1
176
     1
 90
        1
176
     1
 40
1.0
176
     1
 90
        8
176
     1
 62
   257
176
     1
 40
1.0
176
     1
 90
        1
176
     1
 90
        6
176
     1
 90
        2
176
     1
 62
     7
176
     1
 90
        3
176
     1
 90
        0
176
     1
 90
        0
176
     1
290
     0
176
     1
 90
       13
176
     1
 40
0.0
176
     1
 90
        0
176
     1
290
     0
176
     1
290
     1
176
     1
290
     1
176
     1
290
     0
176
     1
290
     0
176
     1
290
     0
176
     1
290
     0
176
     1
290
     0
176
     1
290
     0
176
     1
 90
       50
176
     1
 40
0.0
176
     1
 40
1.0
176
     1
 90
        0
176
     1
 62
   178
420
        0
176
     1
 90
       50
176
     1
 90
        3
176
     1
 62
     5
420
      255
176
     1
290
     0
176
     1
 90
       50
176
     1
 90
       50
176
     1
 90
       50
176
     1
290
     0
176
     1
 90
       50
176
     1
 62
   256
176
     0
 40
1.0
176
     0
 90
        2
176
     1
  1
strokes_ogs.tif
176
     1
290
     0
176
     1
 40
1.0
176
     1
 40
1.0
176
     1
  0
VISUALSTYLE
  5
63F
102
{ACAD_REACTORS
330
627
102
}
330
627
100
AcDbVisualStyle
  2
Shaded
 70
    27
177
     3
291
     0
 70
    58
 90
        2
176
     1
 90
        2
176
     1
 90
        1
176
     1
 90
        2
176
     1
 40
0.6
176
     1
 40
30.0
176
     1
 62
     7
420
 16777215
176
     1
 90
        0
176
     1
 90
        4
176
     1
 62
     7
176
     1
 62
   257
176
     1
 90
        1
176
     1
 90
        1
176
     1
 40
1.0
176
     1
 90
        8
176
     1
 62
   257
176
     1
 40
1.0
176
     1
 90
        1
176
     1
 90
        6
176
     1
 90
        2
176
     1
 62
     8
420
  7895160
176
     1
 90
        3
176
     1
 90
        0
176
     1
 90
        0
176
     1
290
     0
176
     1
 90
        5
176
     1
 40
0.0
176
     1
 90
        0
176
     1
290
     0
176
     1
290
     1
176
     1
290
     1
176
     1
290
     0
176
     1
290
     0
176
     1
290
     0
176
     1
290
     0
176
     1
290
     0
176
     1
290
     0
176
     1
 90
       50
176
     1
 40
0.0
176
     1
 40
1.0
176
     1
 90
        0
176
     1
 62
   178
420
        0
176
     1
 90
       50
176
     1
 90
        3
176
     1
 62
     5
420
      255
176
     1
290
     0
176
     1
 90
       50
176
     1
 90
       50
176
     1
 90
       50
176
     1
290
     0
176
     1
 90
       50
176
     1
 62
   256
176
     0
 40
1.0
176
     0
 90
        2
176
     1
  1
strokes_ogs.tif
176
     1
290
     0
176
     1
 40
1.0
176
     1
 40
1.0
176
     1
  0
VISUALSTYLE
  5
63E
102
{ACAD_REACTORS
330
627
102
}
330
627
100
AcDbVisualStyle
  2
Shaded with edges
 70
    26
177
     3
291
     0
 70
    58
 90
        2
176
     1
 90
        2
176
     1
 90
        1
176
     1
 90
        2
176
     1
 40
0.6
176
     1
 40
30.0
176
     1
 62
     7
420
 16777215
176
     1
 90
        1
176
     1
 90
       10
176
     1
 62
     7
176
     1
 62
   257
176
     1
 90
        2
176
     1
 90
        1
176
     1
 40
1.0
176
     1
 90
        8
176
     1
 62
   257
176
     1
 40
1.0
176
     1
 90
        1
176
     1
 90
        6
176
     1
 90
        2
176
     1
 62
     7
176
     1
 90
        3
176
     1
 90
        0
176
     1
 90
        0
176
     1
290
     0
176
     1
 90
        5
176
     1
 40
0.0
176
     1
 90
        0
176
     1
290
     0
176
     1
290
     1
176
     1
290
     1
176
     1
290
     0
176
     1
290
     0
176
     1
290
     0
176
     1
290
     0
176
     1
290
     0
176
     1
290
     0
176
     1
 90
       50
176
     1
 40
0.0
176
     1
 40
1.0
176
     1
 90
        0
176
     1
 62
   178
420
        0
176
     1
 90
       50
176
     1
 90
        3
176
     1
 62
     5
420
      255
176
     1
290
     0
176
     1
 90
       50
176
     1
 90
       50
176
     1
 90
       50
176
     1
290
     0
176
     1
 90
       50
176
     1
 62
   256
176
     0
 40
1.0
176
     0
 90
        2
176
     1
  1
strokes_ogs.tif
176
     1
290
     0
176
     1
 40
1.0
176
     1
 40
1.0
176
     1
  0
VISUALSTYLE
  5
63B
102
{ACAD_REACTORS
330
627
102
}
330
627
100
AcDbVisualStyle
  2
Shades of Gray
 70
    23
177
     3
291
     0
 70
    58
 90
        2
176
     1
 90
        2
176
     1
 90
        3
176
     1
 90
        0
176
     1
 40
0.6
176
     1
 40
30.0
176
     1
 62
     7
420
 16777215
176
     1
 90
        2
176
     1
 90
        2
176
     1
 62
     7
176
     1
 62
     7
176
     1
 90
        1
176
     1
 90
        1
176
     1
 40
40.0
176
     1
 90
        8
176
     1
 62
     7
176
     1
 40
1.0
176
     1
 90
        1
176
     1
 90
        6
176
     1
 90
        2
176
     1
 62
     7
176
     1
 90
        3
176
     1
 90
        0
176
     1
 90
        0
176
     1
290
     0
176
     1
 90
        1
176
     1
 40
0.0
176
     1
 90
        0
176
     1
290
     0
176
     1
290
     1
176
     1
290
     1
176
     1
290
     0
176
     1
290
     0
176
     1
290
     0
176
     1
290
     0
176
     1
290
     0
176
     1
290
     0
176
     1
 90
       50
176
     1
 40
0.0
176
     1
 40
1.0
176
     1
 90
        0
176
     1
 62
   178
420
        0
176
     1
 90
       50
176
     1
 90
        3
176
     1
 62
     5
420
      255
176
     1
290
     0
176
     1
 90
       50
176
     1
 90
       50
176
     1
 90
       50
176
     1
290
     0
176
     1
 90
       50
176
     1
 62
   256
176
     0
 40
1.0
176
     0
 90
        2
176
     1
  1
strokes_ogs.tif
176
     1
290
     0
176
     1
 40
1.0
176
     1
 40
1.0
176
     1
  0
VISUALSTYLE
  5
63C
102
{ACAD_REACTORS
330
627
102
}
330
627
100
AcDbVisualStyle
  2
Sketchy
 70
    24
177
     3
291
     0
 70
    58
 90
        1
176
     1
 90
        2
176
     1
 90
        2
176
     1
 90
        0
176
     1
 40
0.6
176
     1
 40
30.0
176
     1
 62
     7
420
 16777215
176
     1
 90
        2
176
     1
 90
        2
176
     1
 62
     7
176
     1
 62
     7
176
     1
 90
        1
176
     1
 90
        1
176
     1
 40
40.0
176
     1
 90
       11
176
     1
 62
     7
176
     1
 40
1.0
176
     1
 90
        1
176
     1
 90
        6
176
     1
 90
        2
176
     1
 62
     7
176
     1
 90
        6
176
     1
 90
        0
176
     1
 90
        0
176
     1
290
     0
176
     1
 90
        1
176
     1
 40
0.0
176
     1
 90
        0
176
     1
290
     0
176
     1
290
     1
176
     1
290
     1
176
     1
290
     0
176
     1
290
     0
176
     1
290
     0
176
     1
290
     0
176
     1
290
     0
176
     1
290
     0
176
     1
 90
       50
176
     1
 40
0.0
176
     1
 40
1.0
176
     1
 90
        0
176
     1
 62
   178
420
        0
176
     1
 90
       50
176
     1
 90
        3
176
     1
 62
     5
420
      255
176
     1
290
     0
176
     1
 90
       50
176
     1
 90
       50
176
     1
 90
       50
176
     1
290
     0
176
     1
 90
       50
176
     1
 62
   256
176
     0
 40
1.0
176
     0
 90
        2
176
     1
  1
strokes_ogs.tif
176
     1
290
     0
176
     1
 40
1.0
176
     1
 40
1.0
176
     1
  0
VISUALSTYLE
  5
634
102
{ACAD_REACTORS
330
627
102
}
330
627
100
AcDbVisualStyle
  2
Thicken
 70
    13
177
     3
291
     1
 70
    58
 90
        2
176
     1
 90
        2
176
     1
 90
        0
176
     1
 90
        0
176
     1
 40
0.6
176
     1
 40
30.0
176
     1
 62
     7
420
 16777215
176
     1
 90
        1
176
     1
 90
        4
176
     1
 62
     7
176
     1
 62
   257
176
     1
 90
        1
176
     1
 90
        1
176
     1
 40
1.0
176
     1
 90
       12
176
     1
 62
     7
176
     1
 40
1.0
176
     1
 90
        1
176
     1
 90
        6
176
     1
 90
        2
176
     1
 62
     7
176
     1
 90
        5
176
     1
 90
        0
176
     1
 90
        0
176
     1
290
     0
176
     1
 90
        1
176
     1
 40
0.0
176
     1
 90
        0
176
     1
290
     0
176
     1
290
     1
176
     1
290
     1
176
     1
290
     0
176
     1
290
     0
176
     1
290
     0
176
     1
290
     0
176
     1
290
     0
176
     1
290
     0
176
     1
 90
       50
176
     1
 40
0.0
176
     1
 40
1.0
176
     1
 90
        0
176
     1
 62
   178
420
        0
176
     1
 90
       50
176
     1
 90
        3
176
     1
 62
     5
420
      255
176
     1
290
     0
176
     1
 90
       50
176
     1
 90
       50
176
     1
 90
       50
176
     1
290
     0
176
     1
 90
       50
176
     1
 62
   256
176
     0
 40
1.0
176
     0
 90
        2
176
     1
  1
strokes_ogs.tif
176
     1
290
     0
176
     1
 40
1.0
176
     1
 40
1.0
176
     1
  0
VISUALSTYLE
  5
62D
102
{ACAD_REACTORS
330
627
102
}
330
627
100
AcDbVisualStyle
  2
Wireframe
 70
     5
177
     3
291
     0
 70
    58
 90
        0
176
     1
 90
        2
176
     1
 90
        0
176
     1
 90
        0
176
     1
 40
0.6
176
     1
 40
30.0
176
     1
 62
     7
420
 16777215
176
     1
 90
        1
176
     1
 90
        4
176
     1
 62
     7
176
     1
 62
   257
176
     1
 90
        1
176
     1
 90
        1
176
     1
 40
1.0
176
     1
 90
        0
176
     1
 62
   257
176
     1
 40
1.0
176
     1
 90
        1
176
     1
 90
        6
176
     1
 90
        2
176
     1
 62
     7
176
     1
 90
        3
176
     1
 90
        0
176
     1
 90
        0
176
     1
290
     0
176
     1
 90
        1
176
     1
 40
0.0
176
     1
 90
        0
176
     1
290
     0
176
     1
290
     1
176
     1
290
     1
176
     1
290
     0
176
     1
290
     0
176
     1
290
     0
176
     1
290
     0
176
     1
290
     0
176
     1
290
     0
176
     1
 90
       50
176
     1
 40
0.0
176
     1
 40
1.0
176
     1
 90
        0
176
     1
 62
   178
420
        0
176
     1
 90
       50
176
     1
 90
        3
176
     1
 62
     5
420
      255
176
     1
290
     0
176
     1
 90
       50
176
     1
 90
       50
176
     1
 90
       50
176
     1
290
     0
176
     1
 90
       50
176
     1
 62
   256
176
     0
 40
1.0
176
     0
 90
        2
176
     1
  1
strokes_ogs.tif
176
     1
290
     0
176
     1
 40
1.0
176
     1
 40
1.0
176
     1
  0
VISUALSTYLE
  5
63D
102
{ACAD_REACTORS
330
627
102
}
330
627
100
AcDbVisualStyle
  2
X-Ray
 70
    25
177
     3
291
     0
 70
    58
 90
        2
176
     1
 90
        2
176
     1
 90
        1
176
     1
 90
        1
176
     1
 40
0.5
176
     1
 40
30.0
176
     1
 62
     7
420
 16777215
176
     1
 90
        1
176
     1
 90
        0
176
     1
 62
     7
176
     1
 62
   257
176
     1
 90
        1
176
     1
 90
        1
176
     1
 40
1.0
176
     1
 90
        8
176
     1
 62
     7
176
     1
 40
1.0
176
     1
 90
        1
176
     1
 90
        6
176
     1
 90
        2
176
     1
 62
     7
176
     1
 90
        3
176
     1
 90
        0
176
     1
 90
        0
176
     1
290
     0
176
     1
 90
       13
176
     1
 40
0.0
176
     1
 90
        0
176
     1
290
     0
176
     1
290
     1
176
     1
290
     1
176
     1
290
     0
176
     1
290
     0
176
     1
290
     0
176
     1
290
     0
176
     1
290
     0
176
     1
290
     0
176
     1
 90
       50
176
     1
 40
0.0
176
     1
 40
1.0
176
     1
 90
        0
176
     1
 62
   178
420
        0
176
     1
 90
       50
176
     1
 90
        3
176
     1
 62
     5
420
      255
176
     1
290
     0
176
     1
 90
       50
176
     1
 90
       50
176
     1
 90
       50
176
     1
290
     0
176
     1
 90
       50
176
     1
 62
   256
176
     0
 40
1.0
176
     0
 90
        2
176
     1
  1
strokes_ogs.tif
176
     1
290
     0
176
     1
 40
1.0
176
     1
 40
1.0
176
     1
  0
DICTIONARYVAR
  5
6DC
102
{ACAD_REACTORS
330
6DB
102
}
330
6DB
100
DictionaryVariables
280
     0
  1
1:1
  0
DICTIONARYVAR
  5
6E1
102
{ACAD_REACTORS
330
6DB
102
}
330
6DB
100
DictionaryVariables
280
     0
  1
Standard
  0
DICTIONARYVAR
  5
6E0
102
{ACAD_REACTORS
330
6DB
102
}
330
6DB
100
DictionaryVariables
280
     0
  1
Standard
  0
XRECORD
  5
66E
102
{ACAD_REACTORS
330
66C
102
}
330
66C
100
AcDbXrecord
280
     1
1000
#ffffff
  0
XRECORD
  5
66F
102
{ACAD_REACTORS
330
66C
102
}
330
66C
100
AcDbXrecord
280
     1
1000
FullColor
  0
XRECORD
  5
670
102
{ACAD_REACTORS
330
66C
102
}
330
66C
100
AcDbXrecord
280
     1
290
     1
  0
XRECORD
  5
671
102
{ACAD_REACTORS
330
66C
102
}
330
66C
100
AcDbXrecord
280
     1
290
     1
  0
XRECORD
  5
672
102
{ACAD_REACTORS
330
66C
102
}
330
66C
100
AcDbXrecord
280
     1
290
     1
  0
XRECORD
  5
673
102
{ACAD_REACTORS
330
66C
102
}
330
66C
100
AcDbXrecord
280
     1
290
     1
  0
XRECORD
  5
674
102
{ACAD_REACTORS
330
66C
102
}
330
66C
100
AcDbXrecord
280
     1
1000
1
  0
XRECORD
  5
675
102
{ACAD_REACTORS
330
66C
102
}
330
66C
100
AcDbXrecord
280
     1
1000
0.17320508075688773
  0
XRECORD
  5
676
102
{ACAD_REACTORS
330
66C
102
}
330
66C
100
AcDbXrecord
280
     1
1000
0.1
  0
XRECORD
  5
677
102
{ACAD_REACTORS
330
66C
102
}
330
66C
100
AcDbXrecord
280
     1
1000
0.1
  0
XRECORD
  5
678
102
{ACAD_REACTORS
330
66C
102
}
330
66C
100
AcDbXrecord
280
     1
1000
1
  0
XRECORD
  5
679
102
{ACAD_REACTORS
330
66C
102
}
330
66C
100
AcDbXrecord
280
     1
1000
0.1
  0
XRECORD
  5
67A
102
{ACAD_REACTORS
330
66C
102
}
330
66C
100
AcDbXrecord
280
     1
1000
0.1
  0
XRECORD
  5
67B
102
{ACAD_REACTORS
330
66C
102
}
330
66C
100
AcDbXrecord
280
     1
1000
0.1
  0
XRECORD
  5
67C
102
{ACAD_REACTORS
330
66C
102
}
330
66C
100
AcDbXrecord
280
     1
290
     0
  0
XRECORD
  5
67D
102
{ACAD_REACTORS
330
66C
102
}
330
66C
100
AcDbXrecord
280
     1
290
     1
  0
XRECORD
  5
67E
102
{ACAD_REACTORS
330
66C
102
}
330
66C
100
AcDbXrecord
280
     1
290
     0
  0
XRECORD
  5
67F
102
{ACAD_REACTORS
330
66C
102
}
330
66C
100
AcDbXrecord
280
     1
290
     0
  0
XRECORD
  5
680
102
{ACAD_REACTORS
330
66C
102
}
330
66C
100
AcDbXrecord
280
     1
 90
        0
  0
XRECORD
  5
681
102
{ACAD_REACTORS
330
66C
102
}
330
66C
100
AcDbXrecord
280
     1
 90
        0
  0
XRECORD
  5
682
102
{ACAD_REACTORS
330
66C
102
}
330
66C
100
AcDbXrecord
280
     1
 90
        0
  0
XRECORD
  5
683
102
{ACAD_REACTORS
330
66C
102
}
330
66C
100
AcDbXrecord
280
     1
 90
        0
  0
XRECORD
  5
684
102
{ACAD_REACTORS
330
66C
102
}
330
66C
100
AcDbXrecord
280
     1
1000
0.1
  0
XRECORD
  5
685
102
{ACAD_REACTORS
330
66C
102
}
330
66C
100
AcDbXrecord
280
     1
1000
0.17320508075688773
  0
XRECORD
  5
686
102
{ACAD_REACTORS
330
66C
102
}
330
66C
100
AcDbXrecord
280
     1
1000
auto
  0
XRECORD
  5
687
102
{ACAD_REACTORS
330
66C
102
}
330
66C
100
AcDbXrecord
280
     1
1000
auto
  0
XRECORD
  5
688
102
{ACAD_REACTORS
330
66C
102
}
330
66C
100
AcDbXrecord
280
     1
1000
0.1
  0
XRECORD
  5
689
102
{ACAD_REACTORS
330
66C
102
}
330
66C
100
AcDbXrecord
280
     1
1000
0.1
  0
XRECORD
  5
68A
102
{ACAD_REACTORS
330
66C
102
}
330
66C
100
AcDbXrecord
280
     1
1000
auto
  0
XRECORD
  5
68B
102
{ACAD_REACTORS
330
66C
102
}
330
66C
100
AcDbXrecord
280
     1
1000
auto
  0
XRECORD
  5
68C
102
{ACAD_REACTORS
330
66C
102
}
330
66C
100
AcDbXrecord
280
     1
 90
        1
  0
XRECORD
  5
68D
102
{ACAD_REACTORS
330
66C
102
}
330
66C
100
AcDbXrecord
280
     1
 40
10.0
  0
XRECORD
  5
68E
102
{ACAD_REACTORS
330
66C
102
}
330
66C
100
AcDbXrecord
280
     1
 40
10.0
  0
XRECORD
  5
68F
102
{ACAD_REACTORS
330
66C
102
}
330
66C
100
AcDbXrecord
280
     1
 40
10.0
  0
XRECORD
  5
690
102
{ACAD_REACTORS
330
66C
102
}
330
66C
100
AcDbXrecord
280
     1
 40
10.0
  0
XRECORD
  5
691
102
{ACAD_REACTORS
330
66C
102
}
330
66C
100
AcDbXrecord
280
     1
290
     0
  0
XRECORD
  5
692
102
{ACAD_REACTORS
330
66C
102
}
330
66C
100
AcDbXrecord
280
     1
 90
        1
  0
XRECORD
  5
693
102
{ACAD_REACTORS
330
66C
102
}
330
66C
100
AcDbXrecord
280
     1
 40
0.0
  0
XRECORD
  5
694
102
{ACAD_REACTORS
330
66C
102
}
330
66C
100
AcDbXrecord
280
     1
 40
0.0
  0
XRECORD
  5
695
102
{ACAD_REACTORS
330
66C
102
}
330
66C
100
AcDbXrecord
280
     1
1000
Portrait
  0
XRECORD
  5
696
102
{ACAD_REACTORS
330
66C
102
}
330
66C
100
AcDbXrecord
280
     1
 40
297.0
  0
XRECORD
  5
697
102
{ACAD_REACTORS
330
66C
102
}
330
66C
100
AcDbXrecord
280
     1
 40
210.0
  0
XRECORD
  5
698
102
{ACAD_REACTORS
330
66C
102
}
330
66C
100
AcDbXrecord
280
     1
1000
1:1
  0
XRECORD
  5
699
102
{ACAD_REACTORS
330
66C
102
}
330
66C
100
AcDbXrecord
280
     1
290
     1
  0
XRECORD
  5
69A
102
{ACAD_REACTORS
330
66C
102
}
330
66C
100
AcDbXrecord
280
     1
1000
3.12.1
  0
XRECORD
  5
69B
102
{ACAD_REACTORS
330
66C
102
}
330
66C
100
AcDbXrecord
280
     1
 90
        4
  0
DICTIONARY
  5
6DD
330
667
100
AcDbDictionary
280
     1
281
     1
  3
ACAD_ROUNDTRIP_2008_TABLESTYLE_CELLSTYLEMAP
360
6DE
  0
CELLSTYLEMAP
  5
6DE
102
{ACAD_REACTORS
330
6DD
102
}
330
6DD
100
AcDbCellStyleMap
 90
        3
300
CELLSTYLE
  1
TABLEFORMAT_BEGIN
 90
        5
170
     1
 91
        0
 92
    32768
 62
   257
 93
        1
300
CONTENTFORMAT
  1
CONTENTFORMAT_BEGIN
 90
        0
 91
        0
 92
        4
 93
        0
300

 40
0.0
140
1.0
 94
        5
 62
     0
340
60F
144
0.25
309
CONTENTFORMAT_END
171
     1
301
MARGIN
  1
CELLMARGIN_BEGIN
 40
0.06
 40
0.06
 40
0.06
 40
0.06
 40
0.06
 40
0.06
309
CELLMARGIN_END
 94
        6
 95
        1
302
GRIDFORMAT
  1
GRIDFORMAT_BEGIN
 90
        0
 91
        1
 62
     0
 92
       -2
340
611
 93
        0
 40
0.045
309
GRIDFORMAT_END
 95
        2
302
GRIDFORMAT
  1
GRIDFORMAT_BEGIN
 90
        0
 91
        1
 62
     0
 92
       -2
340
611
 93
        0
 40
0.045
309
GRIDFORMAT_END
 95
        4
302
GRIDFORMAT
  1
GRIDFORMAT_BEGIN
 90
        0
 91
        1
 62
     0
 92
       -2
340
611
 93
        0
 40
0.045
309
GRIDFORMAT_END
 95
        8
302
GRIDFORMAT
  1
GRIDFORMAT_BEGIN
 90
        0
 91
        1
 62
     0
 92
       -2
340
611
 93
        0
 40
0.045
309
GRIDFORMAT_END
 95
       16
302
GRIDFORMAT
  1
GRIDFORMAT_BEGIN
 90
        0
 91
        1
 62
     0
 92
       -2
340
611
 93
        0
 40
0.045
309
GRIDFORMAT_END
 95
       32
302
GRIDFORMAT
  1
GRIDFORMAT_BEGIN
 90
        0
 91
        1
 62
     0
 92
       -2
340
611
 93
        0
 40
0.045
309
GRIDFORMAT_END
309
TABLEFORMAT_END
  1
CELLSTYLE_BEGIN
 90
        1
 91
        1
300
_TITLE
309
CELLSTYLE_END
300
CELLSTYLE
  1
TABLEFORMAT_BEGIN
 90
        5
170
     1
 91
        0
 92
        0
 62
   257
 93
        1
300
CONTENTFORMAT
  1
CONTENTFORMAT_BEGIN
 90
        0
 91
        0
 92
        4
 93
        0
300

 40
0.0
140
1.0
 94
        5
 62
     0
340
60F
144
0.18
309
CONTENTFORMAT_END
171
     1
301
MARGIN
  1
CELLMARGIN_BEGIN
 40
0.06
 40
0.06
 40
0.06
 40
0.06
 40
0.06
 40
0.06
309
CELLMARGIN_END
 94
        6
 95
        1
302
GRIDFORMAT
  1
GRIDFORMAT_BEGIN
 90
        0
 91
        1
 62
     0
 92
       -2
340
611
 93
        0
 40
0.045
309
GRIDFORMAT_END
 95
        2
302
GRIDFORMAT
  1
GRIDFORMAT_BEGIN
 90
        0
 91
        1
 62
     0
 92
       -2
340
611
 93
        0
 40
0.045
309
GRIDFORMAT_END
 95
        4
302
GRIDFORMAT
  1
GRIDFORMAT_BEGIN
 90
        0
 91
        1
 62
     0
 92
       -2
340
611
 93
        0
 40
0.045
309
GRIDFORMAT_END
 95
        8
302
GRIDFORMAT
  1
GRIDFORMAT_BEGIN
 90
        0
 91
        1
 62
     0
 92
       -2
340
611
 93
        0
 40
0.045
309
GRIDFORMAT_END
 95
       16
302
GRIDFORMAT
  1
GRIDFORMAT_BEGIN
 90
        0
 91
        1
 62
     0
 92
       -2
340
611
 93
        0
 40
0.045
309
GRIDFORMAT_END
 95
       32
302
GRIDFORMAT
  1
GRIDFORMAT_BEGIN
 90
        0
 91
        1
 62
     0
 92
       -2
340
611
 93
        0
 40
0.045
309
GRIDFORMAT_END
309
TABLEFORMAT_END
  1
CELLSTYLE_BEGIN
 90
        2
 91
        1
300
_HEADER
309
CELLSTYLE_END
300
CELLSTYLE
  1
TABLEFORMAT_BEGIN
 90
        5
170
     1
 91
        0
 92
        0
 62
   257
 93
        1
300
CONTENTFORMAT
  1
CONTENTFORMAT_BEGIN
 90
        0
 91
        0
 92
        4
 93
        0
300

 40
0.0
140
1.0
 94
        2
 62
     0
340
60F
144
0.18
309
CONTENTFORMAT_END
171
     1
301
MARGIN
  1
CELLMARGIN_BEGIN
 40
0.06
 40
0.06
 40
0.06
 40
0.06
 40
0.06
 40
0.06
309
CELLMARGIN_END
 94
        6
 95
        1
302
GRIDFORMAT
  1
GRIDFORMAT_BEGIN
 90
        0
 91
        1
 62
     0
 92
       -2
340
611
 93
        0
 40
0.045
309
GRIDFORMAT_END
 95
        2
302
GRIDFORMAT
  1
GRIDFORMAT_BEGIN
 90
        0
 91
        1
 62
     0
 92
       -2
340
611
 93
        0
 40
0.045
309
GRIDFORMAT_END
 95
        4
302
GRIDFORMAT
  1
GRIDFORMAT_BEGIN
 90
        0
 91
        1
 62
     0
 92
       -2
340
611
 93
        0
 40
0.045
309
GRIDFORMAT_END
 95
        8
302
GRIDFORMAT
  1
GRIDFORMAT_BEGIN
 90
        0
 91
        1
 62
     0
 92
       -2
340
611
 93
        0
 40
0.045
309
GRIDFORMAT_END
 95
       16
302
GRIDFORMAT
  1
GRIDFORMAT_BEGIN
 90
        0
 91
        1
 62
     0
 92
       -2
340
611
 93
        0
 40
0.045
309
GRIDFORMAT_END
 95
       32
302
GRIDFORMAT
  1
GRIDFORMAT_BEGIN
 90
        0
 91
        1
 62
     0
 92
       -2
340
611
 93
        0
 40
0.045
309
GRIDFORMAT_END
309
TABLEFORMAT_END
  1
CELLSTYLE_BEGIN
 90
        3
 91
        2
300
_DATA
309
CELLSTYLE_END
  0
ENDSEC
  0
EOF
