  0
SECTION
  2
HEADER
  9
$ACADVER
  1
AC1027
  9
$ACADMAINTVER
 70
     8
  9
$DWGCODEPAGE
  3
ANSI_1252
  9
$REQUIREDVERSIONS
160
                 0
  9
$INSBASE
 10
0.0
 20
0.0
 30
0.0
  9
$EXTMIN
 10
1.000000000000000E+20
 20
1.000000000000000E+20
 30
1.000000000000000E+20
  9
$EXTMAX
 10
-1.000000000000000E+20
 20
-1.000000000000000E+20
 30
-1.000000000000000E+20
  9
$LIMMIN
 10
0.0
 20
0.0
  9
$LIMMAX
 10
12.0
 20
9.0
  9
$ORTHOMODE
 70
     0
  9
$REGENMODE
 70
     1
  9
$FILLMODE
 70
     1
  9
$QTEXTMODE
 70
     0
  9
$MIRRTEXT
 70
     1
  9
$LTSCALE
 40
1.0
  9
$ATTMODE
 70
     1
  9
$TEXTSIZE
 40
0.2
  9
$TRACEWID
 40
0.05
  9
$TEXTSTYLE
  7
Standard
  9
$CLAYER
  8
0
  9
$CELTYPE
  6
ByLayer
  9
$CECOLOR
 62
   178
  9
$CELTSCALE
 40
1.0
  9
$DISPSILH
 70
     0
  9
$DIMSCALE
 40
1.0
  9
$DIMASZ
 40
2.5
  9
$DIMEXO
 40
0.625
  9
$DIMDLI
 40
0.38
  9
$DIMRND
 40
0.0
  9
$DIMDLE
 40
0.0
  9
$DIMEXE
 40
1.25
  9
$DIMTP
 40
0.0
  9
$DIMTM
 40
0.0
  9
$DIMTXT
 40
2.5
  9
$DIMCEN
 40
0.09
  9
$DIMTSZ
 40
0.0
  9
$DIMTOL
 70
     0
  9
$DIMLIM
 70
     0
  9
$DIMTIH
 70
     1
  9
$DIMTOH
 70
     1
  9
$DIMSE1
 70
     0
  9
$DIMSE2
 70
     0
  9
$DIMTAD
 70
     0
  9
$DIMZIN
 70
     8
  9
$DIMBLK
  1

  9
$DIMASO
 70
     1
  9
$DIMSHO
 70
     1
  9
$DIMPOST
  1

  9
$DIMAPOST
  1

  9
$DIMALT
 70
     0
  9
$DIMALTD
 70
     2
  9
$DIMALTF
 40
25.4
  9
$DIMLFAC
 40
1.0
  9
$DIMTOFL
 70
     0
  9
$DIMTVP
 40
0.0
  9
$DIMTIX
 70
     0
  9
$DIMSOXD
 70
     0
  9
$DIMSAH
 70
     0
  9
$DIMBLK1
  1

  9
$DIMBLK2
  1

  9
$DIMSTYLE
  2
Standard
  9
$DIMCLRD
 70
   178
  9
$DIMCLRE
 70
   178
  9
$DIMCLRT
 70
   178
  9
$DIMTFAC
 40
1.0
  9
$DIMGAP
 40
0.625
  9
$DIMJUST
 70
     0
  9
$DIMSD1
 70
     0
  9
$DIMSD2
 70
     0
  9
$DIMTOLJ
 70
     1
  9
$DIMTZIN
 70
     0
  9
$DIMALTZ
 70
     0
  9
$DIMALTTZ
 70
     0
  9
$DIMUPT
 70
     0
  9
$DIMDEC
 70
     4
  9
$DIMTDEC
 70
     4
  9
$DIMALTU
 70
     2
  9
$DIMALTTD
 70
     2
  9
$DIMTXSTY
  7
Standard
  9
$DIMAUNIT
 70
     0
  9
$DIMADEC
 70
     0
  9
$DIMALTRND
 40
0.0
  9
$DIMAZIN
 70
     2
  9
$DIMDSEP
 70
    46
  9
$DIMATFIT
 70
     3
  9
$DIMFRAC
 70
     0
  9
$DIMLDRBLK
  1

  9
$DIMLUNIT
 70
     2
  9
$DIMLWD
 70
    -2
  9
$DIMLWE
 70
    -2
  9
$DIMTMOVE
 70
     0
  9
$DIMFXL
 40
1.0
  9
$DIMFXLON
 70
     0
  9
$DIMJOGANG
 40
0.7853981633974483
  9
$DIMTFILL
 70
     0
  9
$DIMTFILLCLR
 70
     0
  9
$DIMARCSYM
 70
     0
  9
$DIMLTYPE
  6

  9
$DIMLTEX1
  6

  9
$DIMLTEX2
  6

  9
$DIMTXTDIRECTION
 70
     0
  9
$LUNITS
 70
     2
  9
$LUPREC
 70
     4
  9
$SKETCHINC
 40
0.1
  9
$FILLETRAD
 40
0.5
  9
$AUNITS
 70
     0
  9
$AUPREC
 70
     0
  9
$MENU
  1
.
  9
$ELEVATION
 40
0.0
  9
$PELEVATION
 40
0.0
  9
$THICKNESS
 40
0.0
  9
$LIMCHECK
 70
     0
  9
$CHAMFERA
 40
0.0
  9
$CHAMFERB
 40
0.0
  9
$CHAMFERC
 40
0.0
  9
$CHAMFERD
 40
0.0
  9
$SKPOLY
 70
     0
  9
$TDCREATE
 40
2457329.799201389
  9
$TDUCREATE
 40
2457329.757534722
  9
$TDUPDATE
 40
2457329.799201389
  9
$TDUUPDATE
 40
2457329.757534722
  9
$TDINDWG
 40
0.0000000116
  9
$TDUSRTIMER
 40
0.0000000116
  9
$USRTIMER
 70
     1
  9
$ANGBASE
 50
0.0
  9
$ANGDIR
 70
     0
  9
$PDMODE
 70
     0
  9
$PDSIZE
 40
0.0
  9
$PLINEWID
 40
0.0
  9
$SPLFRAME
 70
     0
  9
$SPLINETYPE
 70
     6
  9
$SPLINESEGS
 70
     8
  9
$HANDSEED
  5
FFD
  9
$SURFTAB1
 70
     6
  9
$SURFTAB2
 70
     6
  9
$SURFTYPE
 70
     6
  9
$SURFU
 70
     6
  9
$SURFV
 70
     6
  9
$UCSBASE
  2

  9
$UCSNAME
  2

  9
$UCSORG
 10
0.0
 20
0.0
 30
0.0
  9
$UCSXDIR
 10
1.0
 20
0.0
 30
0.0
  9
$UCSYDIR
 10
0.0
 20
1.0
 30
0.0
  9
$UCSORTHOREF
  2

  9
$UCSORTHOVIEW
 70
     0
  9
$UCSORGTOP
 10
0.0
 20
0.0
 30
0.0
  9
$UCSORGBOTTOM
 10
0.0
 20
0.0
 30
0.0
  9
$UCSORGLEFT
 10
0.0
 20
0.0
 30
0.0
  9
$UCSORGRIGHT
 10
0.0
 20
0.0
 30
0.0
  9
$UCSORGFRONT
 10
0.0
 20
0.0
 30
0.0
  9
$UCSORGBACK
 10
0.0
 20
0.0
 30
0.0
  9
$PUCSBASE
  2

  9
$PUCSNAME
  2

  9
$PUCSORG
 10
0.0
 20
0.0
 30
0.0
  9
$PUCSXDIR
 10
1.0
 20
0.0
 30
0.0
  9
$PUCSYDIR
 10
0.0
 20
1.0
 30
0.0
  9
$PUCSORTHOREF
  2

  9
$PUCSORTHOVIEW
 70
     0
  9
$PUCSORGTOP
 10
0.0
 20
0.0
 30
0.0
  9
$PUCSORGBOTTOM
 10
0.0
 20
0.0
 30
0.0
  9
$PUCSORGLEFT
 10
0.0
 20
0.0
 30
0.0
  9
$PUCSORGRIGHT
 10
0.0
 20
0.0
 30
0.0
  9
$PUCSORGFRONT
 10
0.0
 20
0.0
 30
0.0
  9
$PUCSORGBACK
 10
0.0
 20
0.0
 30
0.0
  9
$USERI1
 70
     0
  9
$USERI2
 70
     0
  9
$USERI3
 70
     0
  9
$USERI4
 70
     0
  9
$USERI5
 70
     0
  9
$USERR1
 40
0.0
  9
$USERR2
 40
0.0
  9
$USERR3
 40
0.0
  9
$USERR4
 40
0.0
  9
$USERR5
 40
0.0
  9
$WORLDVIEW
 70
     1
  9
$SHADEDGE
 70
     3
  9
$SHADEDIF
 70
    70
  9
$TILEMODE
 70
     1
  9
$MAXACTVP
 70
     2
  9
$PINSBASE
 10
0.0
 20
0.0
 30
0.0
  9
$PLIMCHECK
 70
     0
  9
$PEXTMIN
 10
1.000000000000000E+20
 20
1.000000000000000E+20
 30
1.000000000000000E+20
  9
$PEXTMAX
 10
-1.000000000000000E+20
 20
-1.000000000000000E+20
 30
-1.000000000000000E+20
  9
$PLIMMIN
 10
0.0
 20
0.0
  9
$PLIMMAX
 10
12.0
 20
9.0
  9
$UNITMODE
 70
     0
  9
$VISRETAIN
 70
     1
  9
$PLINEGEN
 70
     0
  9
$PSLTSCALE
 70
     1
  9
$TREEDEPTH
 70
  3020
  9
$CMLSTYLE
  2
Standard
  9
$CMLJUST
 70
     0
  9
$CMLSCALE
 40
1.0
  9
$PROXYGRAPHICS
 70
     1
  9
$MEASUREMENT
 70
     1
  9
$CELWEIGHT
370
    -1
  9
$ENDCAPS
280
     0
  9
$JOINSTYLE
280
     0
  9
$LWDISPLAY
290
     0
  9
$INSUNITS
 70
     4
  9
$HYPERLINKBASE
  1

  9
$STYLESHEET
  1

  9
$XEDIT
290
     1
  9
$CEPSNTYPE
380
     0
  9
$PSTYLEMODE
290
     1
  9
$FINGERPRINTGUID
  2
{B426BE7B-73B9-BFA6-4913-835053C0A704}
  9
$VERSIONGUID
  2
{FAEB1C32-E019-11D5-929B-00C0DF256EC4}
  9
$EXTNAMES
290
     1
  9
$PSVPSCALE
 40
0.0
  9
$OLESTARTUP
290
     0
  9
$SORTENTS
280
   127
  9
$INDEXCTL
280
     0
  9
$HIDETEXT
280
     1
  9
$XCLIPFRAME
280
     2
  9
$HALOGAP
280
     0
  9
$OBSCOLOR
 70
   257
  9
$OBSLTYPE
280
     0
  9
$INTERSECTIONDISPLAY
280
     0
  9
$INTERSECTIONCOLOR
 70
   257
  9
$DIMASSOC
280
     2
  9
$PROJECTNAME
  1

  9
$CAMERADISPLAY
290
     0
  9
$LENSLENGTH
 40
50.0
  9
$CAMERAHEIGHT
 40
0.0
  9
$STEPSPERSEC
 40
2.0
  9
$STEPSIZE
 40
6.0
  9
$3DDWFPREC
 40
2.0
  9
$PSOLWIDTH
 40
0.25
  9
$PSOLHEIGHT
 40
4.0
  9
$LOFTANG1
 40
1.570796326794897
  9
$LOFTANG2
 40
1.570796326794897
  9
$LOFTMAG1
 40
0.0
  9
$LOFTMAG2
 40
0.0
  9
$LOFTPARAM
 70
     7
  9
$LOFTNORMALS
280
     1
  9
$LATITUDE
 40
37.795
  9
$LONGITUDE
 40
-122.394
  9
$NORTHDIRECTION
 40
0.0
  9
$TIMEZONE
 70
 -8000
  9
$LIGHTGLYPHDISPLAY
280
     1
  9
$TILEMODELIGHTSYNCH
280
     1
  9
$CMATERIAL
347
F58
  9
$SOLIDHIST
280
     0
  9
$SHOWHIST
280
     1
  9
$DWFFRAME
280
     2
  9
$DGNFRAME
280
     2
  9
$REALWORLDSCALE
290
     1
  9
$INTERFERECOLOR
 62
   256
  9
$CSHADOW
280
     0
  9
$SHADOWPLANELOCATION
 40
0.0
  0
ENDSEC
  0
SECTION
  2
CLASSES
  0
CLASS
  1
ACDBDICTIONARYWDFLT
  2
AcDbDictionaryWithDefault
  3
ObjectDBX Classes
 90
        0
 91
        4
280
     0
281
     0
  0
CLASS
  1
VISUALSTYLE
  2
AcDbVisualStyle
  3
ObjectDBX Classes
 90
     4095
 91
        4
280
     0
281
     0
  0
CLASS
  1
MATERIAL
  2
AcDbMaterial
  3
ObjectDBX Classes
 90
     1153
 91
        4
280
     0
281
     0
  0
CLASS
  1
SCALE
  2
AcDbScale
  3
ObjectDBX Classes
 90
     1153
 91
        4
280
     0
281
     0
  0
CLASS
  1
TABLESTYLE
  2
AcDbTableStyle
  3
ObjectDBX Classes
 90
     4095
 91
        4
280
     0
281
     0
  0
CLASS
  1
MLEADERSTYLE
  2
AcDbMLeaderStyle
  3
ACDB_MLEADERSTYLE_CLASS
 90
     4095
 91
        4
280
     0
281
     0
  0
CLASS
  1
SUN
  2
AcDbSun
  3
SCENEOE
 90
     1153
 91
        4
280
     0
281
     0
  0
CLASS
  1
DICTIONARYVAR
  2
AcDbDictionaryVar
  3
ObjectDBX Classes
 90
        0
 91
        4
280
     0
281
     0
  0
CLASS
  1
CELLSTYLEMAP
  2
AcDbCellStyleMap
  3
ObjectDBX Classes
 90
     1152
 91
        4
280
     0
281
     0
  0
ENDSEC
  0
SECTION
  2
TABLES
  0
TABLE
  2
VPORT
  5
F1D
330
0
100
AcDbSymbolTable
 70
     1
  0
VPORT
  5
F3D
330
F1D
100
AcDbSymbolTableRecord
100
AcDbViewportTableRecord
  2
*Active
 70
     0
 10
0.0
 20
0.0
 11
1.0
 21
1.0
 12
10.42990654205607
 22
4.5
 13
0.0
 23
0.0
 14
0.5
 24
0.5
 15
0.5
 25
0.5
 16
0.0
 26
0.0
 36
1.0
 17
0.0
 27
0.0
 37
0.0
 40
9.0
 41
1.972972972850329
 42
50.0
 43
0.0
 44
0.0
 50
0.0
 51
0.0
 71
     0
 72
   100
 73
     1
 74
     3
 75
     0
 76
     0
 77
     0
 78
     0
281
     0
 65
     1
110
0.0
120
0.0
130
0.0
111
1.0
121
0.0
131
0.0
112
0.0
122
1.0
132
0.0
 79
     0
146
0.0
 60
     3
 61
     5
292
     1
282
     1
141
0.0
142
0.0
 63
   250
361
F81
  0
ENDTAB
  0
TABLE
  2
LTYPE
  5
F1A
330
0
100
AcDbSymbolTable
 70
    48
  0
LTYPE
  5
F28
330
F1A
100
AcDbSymbolTableRecord
100
AcDbLinetypeTableRecord
  2
ByBlock
 70
     0
  3

 72
    65
 73
     0
 40
0.0
  0
LTYPE
  5
F29
330
F1A
100
AcDbSymbolTableRecord
100
AcDbLinetypeTableRecord
  2
ByLayer
 70
     0
  3

 72
    65
 73
     0
 40
0.0
  0
LTYPE
  5
F2A
330
F1A
100
AcDbSymbolTableRecord
100
AcDbLinetypeTableRecord
  2
Continuous
 70
     0
  3
Solid line
 72
    65
 73
     0
 40
0.0
  0
LTYPE
  5
FB5
330
F1A
100
AcDbSymbolTableRecord
100
AcDbLinetypeTableRecord
  2
ACAD_ISO02W100
 70
     0
  3
ISO dash __ __ __ __ __ __ __ __ __ __ __ __ __
 72
    65
 73
     2
 40
15.0
 49
12.0
 74
     0
 49
-3.0
 74
     0
  0
LTYPE
  5
FB6
330
F1A
100
AcDbSymbolTableRecord
100
AcDbLinetypeTableRecord
  2
ACAD_ISO03W100
 70
     0
  3
ISO dash space __    __    __    __    __    __
 72
    65
 73
     2
 40
30.0
 49
12.0
 74
     0
 49
-18.0
 74
     0
  0
LTYPE
  5
FB7
330
F1A
100
AcDbSymbolTableRecord
100
AcDbLinetypeTableRecord
  2
ACAD_ISO04W100
 70
     0
  3
ISO long-dash dot ____ . ____ . ____ . ____ . _
 72
    65
 73
     4
 40
30.0
 49
24.0
 74
     0
 49
-3.0
 74
     0
 49
0.0
 74
     0
 49
-3.0
 74
     0
  0
LTYPE
  5
FB8
330
F1A
100
AcDbSymbolTableRecord
100
AcDbLinetypeTableRecord
  2
ACAD_ISO05W100
 70
     0
  3
ISO long-dash double-dot ____ .. ____ .. ____ . 
 72
    65
 73
     6
 40
33.0
 49
24.0
 74
     0
 49
-3.0
 74
     0
 49
0.0
 74
     0
 49
-3.0
 74
     0
 49
0.0
 74
     0
 49
-3.0
 74
     0
  0
LTYPE
  5
FB9
330
F1A
100
AcDbSymbolTableRecord
100
AcDbLinetypeTableRecord
  2
ACAD_ISO06W100
 70
     0
  3
ISO long-dash triple-dot ____ ... ____ ... ____
 72
    65
 73
     8
 40
36.0
 49
24.0
 74
     0
 49
-3.0
 74
     0
 49
0.0
 74
     0
 49
-3.0
 74
     0
 49
0.0
 74
     0
 49
-3.0
 74
     0
 49
0.0
 74
     0
 49
-3.0
 74
     0
  0
LTYPE
  5
FBA
330
F1A
100
AcDbSymbolTableRecord
100
AcDbLinetypeTableRecord
  2
ACAD_ISO07W100
 70
     0
  3
ISO dot . . . . . . . . . . . . . . . . . . . . 
 72
    65
 73
     2
 40
3.0
 49
0.0
 74
     0
 49
-3.0
 74
     0
  0
LTYPE
  5
FBB
330
F1A
100
AcDbSymbolTableRecord
100
AcDbLinetypeTableRecord
  2
ACAD_ISO08W100
 70
     0
  3
ISO long-dash short-dash ____ __ ____ __ ____ _
 72
    65
 73
     4
 40
36.0
 49
24.0
 74
     0
 49
-3.0
 74
     0
 49
6.0
 74
     0
 49
-3.0
 74
     0
  0
LTYPE
  5
FBC
330
F1A
100
AcDbSymbolTableRecord
100
AcDbLinetypeTableRecord
  2
ACAD_ISO09W100
 70
     0
  3
ISO long-dash double-short-dash ____ __ __ ____
 72
    65
 73
     6
 40
45.0
 49
24.0
 74
     0
 49
-3.0
 74
     0
 49
6.0
 74
     0
 49
-3.0
 74
     0
 49
6.0
 74
     0
 49
-3.0
 74
     0
  0
LTYPE
  5
FBD
330
F1A
100
AcDbSymbolTableRecord
100
AcDbLinetypeTableRecord
  2
ACAD_ISO10W100
 70
     0
  3
ISO dash dot __ . __ . __ . __ . __ . __ . __ . 
 72
    65
 73
     4
 40
18.0
 49
12.0
 74
     0
 49
-3.0
 74
     0
 49
0.0
 74
     0
 49
-3.0
 74
     0
  0
LTYPE
  5
FBE
330
F1A
100
AcDbSymbolTableRecord
100
AcDbLinetypeTableRecord
  2
ACAD_ISO11W100
 70
     0
  3
ISO double-dash dot __ __ . __ __ . __ __ . __ _
 72
    65
 73
     6
 40
33.0
 49
12.0
 74
     0
 49
-3.0
 74
     0
 49
12.0
 74
     0
 49
-3.0
 74
     0
 49
0.0
 74
     0
 49
-3.0
 74
     0
  0
LTYPE
  5
FBF
330
F1A
100
AcDbSymbolTableRecord
100
AcDbLinetypeTableRecord
  2
ACAD_ISO12W100
 70
     0
  3
ISO dash double-dot __ . . __ . . __ . . __ . . 
 72
    65
 73
     6
 40
21.0
 49
12.0
 74
     0
 49
-3.0
 74
     0
 49
0.0
 74
     0
 49
-3.0
 74
     0
 49
0.0
 74
     0
 49
-3.0
 74
     0
  0
LTYPE
  5
FC0
330
F1A
100
AcDbSymbolTableRecord
100
AcDbLinetypeTableRecord
  2
ACAD_ISO13W100
 70
     0
  3
ISO double-dash double-dot __ __ . . __ __ . . _
 72
    65
 73
     8
 40
36.0
 49
12.0
 74
     0
 49
-3.0
 74
     0
 49
12.0
 74
     0
 49
-3.0
 74
     0
 49
0.0
 74
     0
 49
-3.0
 74
     0
 49
0.0
 74
     0
 49
-3.0
 74
     0
  0
LTYPE
  5
FC1
330
F1A
100
AcDbSymbolTableRecord
100
AcDbLinetypeTableRecord
  2
ACAD_ISO14W100
 70
     0
  3
ISO dash triple-dot __ . . . __ . . . __ . . . _
 72
    65
 73
     8
 40
24.0
 49
12.0
 74
     0
 49
-3.0
 74
     0
 49
0.0
 74
     0
 49
-3.0
 74
     0
 49
0.0
 74
     0
 49
-3.0
 74
     0
 49
0.0
 74
     0
 49
-3.0
 74
     0
  0
LTYPE
  5
FC2
330
F1A
100
AcDbSymbolTableRecord
100
AcDbLinetypeTableRecord
  2
ACAD_ISO15W100
 70
     0
  3
ISO double-dash triple-dot __ __ . . . __ __ . .
 72
    65
 73
    10
 40
39.0
 49
12.0
 74
     0
 49
-3.0
 74
     0
 49
12.0
 74
     0
 49
-3.0
 74
     0
 49
0.0
 74
     0
 49
-3.0
 74
     0
 49
0.0
 74
     0
 49
-3.0
 74
     0
 49
0.0
 74
     0
 49
-3.0
 74
     0
  0
LTYPE
  5
FC5
330
F1A
100
AcDbSymbolTableRecord
100
AcDbLinetypeTableRecord
  2
BATTING
 70
     0
  3
Batting SSSSSSSSSSSSSSSSSSSSSSSSSSSSSSSSSSSSSSSSSSSSSSS
 72
    65
 73
     4
 40
10.16254
 49
0.00254
 74
     0
 49
-2.54
 74
     2
 75
     0
340
FC3
 46
2.54
 50
0.0
 44
-2.54
 45
0.0
  9
BAT
 49
-5.08
 74
     2
 75
     0
340
FC4
 46
2.54
 50
180.0
 44
2.54
 45
0.0
  9
BAT
 49
-2.54
 74
     0
  0
LTYPE
  5
FC6
330
F1A
100
AcDbSymbolTableRecord
100
AcDbLinetypeTableRecord
  2
BORDER
 70
     0
  3
Border __ __ . __ __ . __ __ . __ __ . __ __ .
 72
    65
 73
     6
 40
44.45
 49
12.7
 74
     0
 49
-6.35
 74
     0
 49
12.7
 74
     0
 49
-6.35
 74
     0
 49
0.0
 74
     0
 49
-6.35
 74
     0
  0
LTYPE
  5
FC7
330
F1A
100
AcDbSymbolTableRecord
100
AcDbLinetypeTableRecord
  2
BORDER2
 70
     0
  3
Border (.5x) __.__.__.__.__.__.__.__.__.__.__.
 72
    65
 73
     6
 40
22.225
 49
6.35
 74
     0
 49
-3.175
 74
     0
 49
6.35
 74
     0
 49
-3.175
 74
     0
 49
0.0
 74
     0
 49
-3.175
 74
     0
  0
LTYPE
  5
FC8
330
F1A
100
AcDbSymbolTableRecord
100
AcDbLinetypeTableRecord
  2
BORDERX2
 70
     0
  3
Border (2x) ____  ____  .  ____  ____  .  ___
 72
    65
 73
     6
 40
88.89999999999999
 49
25.4
 74
     0
 49
-12.7
 74
     0
 49
25.4
 74
     0
 49
-12.7
 74
     0
 49
0.0
 74
     0
 49
-12.7
 74
     0
  0
LTYPE
  5
FC9
330
F1A
100
AcDbSymbolTableRecord
100
AcDbLinetypeTableRecord
  2
CENTER
 70
     0
  3
Center ____ _ ____ _ ____ _ ____ _ ____ _ ____
 72
    65
 73
     4
 40
50.8
 49
31.75
 74
     0
 49
-6.35
 74
     0
 49
6.35
 74
     0
 49
-6.35
 74
     0
  0
LTYPE
  5
FCA
330
F1A
100
AcDbSymbolTableRecord
100
AcDbLinetypeTableRecord
  2
CENTER2
 70
     0
  3
Center (.5x) ___ _ ___ _ ___ _ ___ _ ___ _ ___
 72
    65
 73
     4
 40
28.575
 49
19.05
 74
     0
 49
-3.175
 74
     0
 49
3.175
 74
     0
 49
-3.175
 74
     0
  0
LTYPE
  5
FCB
330
F1A
100
AcDbSymbolTableRecord
100
AcDbLinetypeTableRecord
  2
CENTERX2
 70
     0
  3
Center (2x) ________  __  ________  __  _____
 72
    65
 73
     4
 40
101.6
 49
63.5
 74
     0
 49
-12.7
 74
     0
 49
12.7
 74
     0
 49
-12.7
 74
     0
  0
LTYPE
  5
FCC
330
F1A
100
AcDbSymbolTableRecord
100
AcDbLinetypeTableRecord
  2
DASHDOT
 70
     0
  3
Dash dot __ . __ . __ . __ . __ . __ . __ . __
 72
    65
 73
     4
 40
25.4
 49
12.7
 74
     0
 49
-6.35
 74
     0
 49
0.0
 74
     0
 49
-6.35
 74
     0
  0
LTYPE
  5
FCD
330
F1A
100
AcDbSymbolTableRecord
100
AcDbLinetypeTableRecord
  2
DASHDOT2
 70
     0
  3
Dash dot (.5x) _._._._._._._._._._._._._._._.
 72
    65
 73
     4
 40
12.7
 49
6.35
 74
     0
 49
-3.175
 74
     0
 49
0.0
 74
     0
 49
-3.175
 74
     0
  0
LTYPE
  5
FCE
330
F1A
100
AcDbSymbolTableRecord
100
AcDbLinetypeTableRecord
  2
DASHDOTX2
 70
     0
  3
Dash dot (2x) ____  .  ____  .  ____  .  ___
 72
    65
 73
     4
 40
50.8
 49
25.4
 74
     0
 49
-12.7
 74
     0
 49
0.0
 74
     0
 49
-12.7
 74
     0
  0
LTYPE
  5
FCF
330
F1A
100
AcDbSymbolTableRecord
100
AcDbLinetypeTableRecord
  2
DASHED
 70
     0
  3
Dashed __ __ __ __ __ __ __ __ __ __ __ __ __ _
 72
    65
 73
     2
 40
19.05
 49
12.7
 74
     0
 49
-6.35
 74
     0
  0
LTYPE
  5
FD0
330
F1A
100
AcDbSymbolTableRecord
100
AcDbLinetypeTableRecord
  2
DASHED2
 70
     0
  3
Dashed (.5x) _ _ _ _ _ _ _ _ _ _ _ _ _ _ _ _ _ 
 72
    65
 73
     2
 40
9.524999999999999
 49
6.35
 74
     0
 49
-3.175
 74
     0
  0
LTYPE
  5
FD1
330
F1A
100
AcDbSymbolTableRecord
100
AcDbLinetypeTableRecord
  2
DASHEDX2
 70
     0
  3
Dashed (2x) ____  ____  ____  ____  ____  ___
 72
    65
 73
     2
 40
38.09999999999999
 49
25.4
 74
     0
 49
-12.7
 74
     0
  0
LTYPE
  5
FD2
330
F1A
100
AcDbSymbolTableRecord
100
AcDbLinetypeTableRecord
  2
DIVIDE
 70
     0
  3
Divide ____ . . ____ . . ____ . . ____ . . ____
 72
    65
 73
     6
 40
31.75
 49
12.7
 74
     0
 49
-6.35
 74
     0
 49
0.0
 74
     0
 49
-6.35
 74
     0
 49
0.0
 74
     0
 49
-6.35
 74
     0
  0
LTYPE
  5
FD3
330
F1A
100
AcDbSymbolTableRecord
100
AcDbLinetypeTableRecord
  2
DIVIDE2
 70
     0
  3
Divide (.5x) __..__..__..__..__..__..__..__.._
 72
    65
 73
     6
 40
15.875
 49
6.35
 74
     0
 49
-3.175
 74
     0
 49
0.0
 74
     0
 49
-3.175
 74
     0
 49
0.0
 74
     0
 49
-3.175
 74
     0
  0
LTYPE
  5
FD4
330
F1A
100
AcDbSymbolTableRecord
100
AcDbLinetypeTableRecord
  2
DIVIDEX2
 70
     0
  3
Divide (2x) ________  .  .  ________  .  .  _
 72
    65
 73
     6
 40
63.5
 49
25.4
 74
     0
 49
-12.7
 74
     0
 49
0.0
 74
     0
 49
-12.7
 74
     0
 49
0.0
 74
     0
 49
-12.7
 74
     0
  0
LTYPE
  5
FD5
330
F1A
100
AcDbSymbolTableRecord
100
AcDbLinetypeTableRecord
  2
DOT
 70
     0
  3
Dot . . . . . . . . . . . . . . . . . . . . . . . .
 72
    65
 73
     2
 40
6.35
 49
0.0
 74
     0
 49
-6.35
 74
     0
  0
LTYPE
  5
FD6
330
F1A
100
AcDbSymbolTableRecord
100
AcDbLinetypeTableRecord
  2
DOT2
 70
     0
  3
Dot (.5x) ........................................
 72
    65
 73
     2
 40
3.175
 49
0.0
 74
     0
 49
-3.175
 74
     0
  0
LTYPE
  5
FD7
330
F1A
100
AcDbSymbolTableRecord
100
AcDbLinetypeTableRecord
  2
DOTX2
 70
     0
  3
Dot (2x) .  .  .  .  .  .  .  .  .  .  .  .  .  .
 72
    65
 73
     2
 40
12.7
 49
0.0
 74
     0
 49
-12.7
 74
     0
  0
LTYPE
  5
FD9
330
F1A
100
AcDbSymbolTableRecord
100
AcDbLinetypeTableRecord
  2
DRAINAGE
 70
     0
  3
Drainage ---->---->---->----
 72
    65
 73
     2
 40
10.16
 49
5.08
 74
     2
 75
     0
340
FD8
 46
2.54
 50
180.0
 44
0.0
 45
0.0
  9
RIGHT_ARROW
 49
5.08
 74
     0
  0
LTYPE
  5
FDB
330
F1A
100
AcDbSymbolTableRecord
100
AcDbLinetypeTableRecord
  2
DRAINAGE2
 70
     0
  3
Drainage reversed----<----<----<----
 72
    65
 73
     2
 40
10.16
 49
5.08
 74
     2
 75
     0
340
FDA
 46
2.54
 50
0.0
 44
0.0
 45
0.0
  9
RIGHT_ARROW
 49
5.08
 74
     0
  0
LTYPE
  5
FDD
330
F1A
100
AcDbSymbolTableRecord
100
AcDbLinetypeTableRecord
  2
FENCELINE1
 70
     0
  3
Fenceline circle ----0-----0----0-----0----0-----0--
 72
    65
 73
     4
 40
36.83
 49
6.35
 74
     0
 49
-2.54
 74
     2
 75
     0
340
FDC
 46
2.54
 50
0.0
 44
-2.54
 45
0.0
  9
CIRC1
 49
-2.54
 74
     0
 49
25.4
 74
     0
  0
LTYPE
  5
FDF
330
F1A
100
AcDbSymbolTableRecord
100
AcDbLinetypeTableRecord
  2
FENCELINE2
 70
     0
  3
Fenceline square ----[]-----[]----[]-----[]----[]---
 72
    65
 73
     4
 40
36.83
 49
6.35
 74
     0
 49
-2.54
 74
     2
 75
     0
340
FDE
 46
2.54
 50
0.0
 44
-2.54
 45
0.0
  9
BOX
 49
-2.54
 74
     0
 49
25.4
 74
     0
  0
LTYPE
  5
FE1
330
F1A
100
AcDbSymbolTableRecord
100
AcDbLinetypeTableRecord
  2
GAS_LINE
 70
     0
  3
Gas line ----GAS----GAS----GAS----GAS----GAS----GAS--
 72
    65
 73
     3
 40
24.13
 49
12.7
 74
     0
 49
-5.08
 74
     2
 75
     0
340
FE0
 46
2.54
 50
0.0
 44
-2.54
 45
-1.27
  9
GAS
 49
-6.35
 74
     0
  0
LTYPE
  5
FE2
330
F1A
100
AcDbSymbolTableRecord
100
AcDbLinetypeTableRecord
  2
HIDDEN
 70
     0
  3
Hidden __ __ __ __ __ __ __ __ __ __ __ __ __ __
 72
    65
 73
     2
 40
9.524999999999999
 49
6.35
 74
     0
 49
-3.175
 74
     0
  0
LTYPE
  5
FE3
330
F1A
100
AcDbSymbolTableRecord
100
AcDbLinetypeTableRecord
  2
HIDDEN2
 70
     0
  3
Hidden (.5x) _ _ _ _ _ _ _ _ _ _ _ _ _ _ _ _ _ 
 72
    65
 73
     2
 40
4.762499999999999
 49
3.175
 74
     0
 49
-1.5875
 74
     0
  0
LTYPE
  5
FE4
330
F1A
100
AcDbSymbolTableRecord
100
AcDbLinetypeTableRecord
  2
HIDDENX2
 70
     0
  3
Hidden (2x) ____ ____ ____ ____ ____ ____ ____ 
 72
    65
 73
     2
 40
19.05
 49
12.7
 74
     0
 49
-6.35
 74
     0
  0
LTYPE
  5
FE6
330
F1A
100
AcDbSymbolTableRecord
100
AcDbLinetypeTableRecord
  2
HOT_WATER_SUPPLY
 70
     0
  3
Hot water supply ---- HW ---- HW ---- HW ----
 72
    65
 73
     3
 40
22.86
 49
12.7
 74
     0
 49
-5.08
 74
     2
 75
     0
340
FE5
 46
2.54
 50
0.0
 44
-2.54
 45
-1.27
  9
HW
 49
-5.08
 74
     0
  0
LTYPE
  5
FE7
330
F1A
100
AcDbSymbolTableRecord
100
AcDbLinetypeTableRecord
  2
PHANTOM
 70
     0
  3
Phantom ______  __  __  ______  __  __  ______ 
 72
    65
 73
     6
 40
63.50000000000001
 49
31.75
 74
     0
 49
-6.35
 74
     0
 49
6.35
 74
     0
 49
-6.35
 74
     0
 49
6.35
 74
     0
 49
-6.35
 74
     0
  0
LTYPE
  5
FE8
330
F1A
100
AcDbSymbolTableRecord
100
AcDbLinetypeTableRecord
  2
PHANTOM2
 70
     0
  3
Phantom (.5x) ___ _ _ ___ _ _ ___ _ _ ___ _ _
 72
    65
 73
     6
 40
31.75
 49
15.875
 74
     0
 49
-3.175
 74
     0
 49
3.175
 74
     0
 49
-3.175
 74
     0
 49
3.175
 74
     0
 49
-3.175
 74
     0
  0
LTYPE
  5
FE9
330
F1A
100
AcDbSymbolTableRecord
100
AcDbLinetypeTableRecord
  2
PHANTOMX2
 70
     0
  3
Phantom (2x) ____________    ____    ____   _
 72
    65
 73
     6
 40
127.0
 49
63.5
 74
     0
 49
-12.7
 74
     0
 49
12.7
 74
     0
 49
-12.7
 74
     0
 49
12.7
 74
     0
 49
-12.7
 74
     0
  0
LTYPE
  5
FEB
330
F1A
100
AcDbSymbolTableRecord
100
AcDbLinetypeTableRecord
  2
TRACKS
 70
     0
  3
Tracks -|-|-|-|-|-|-|-|-|-|-|-|-|-|-|-|-|-|-|-|-|-|-|-|-
 72
    65
 73
     2
 40
7.62
 49
3.81
 74
     2
 75
     0
340
FEA
 46
6.35
 50
0.0
 44
0.0
 45
0.0
  9
TRACK1
 49
3.81
 74
     0
  0
LTYPE
  5
FEE
330
F1A
100
AcDbSymbolTableRecord
100
AcDbLinetypeTableRecord
  2
ZIGZAG
 70
     0
  3
Zig zag /\/\/\/\/\/\/\/\/\/\/\/\/\/\/\/\/\/\/\/\/\/\/\/
 72
    65
 73
     4
 40
20.32254
 49
0.00254
 74
     0
 49
-5.08
 74
     2
 75
     0
340
FEC
 46
5.08
 50
0.0
 44
-5.08
 45
0.0
  9
ZIG
 49
-10.16
 74
     2
 75
     0
340
FED
 46
5.08
 50
180.0
 44
5.08
 45
0.0
  9
ZIG
 49
-5.08
 74
     0
  0
ENDTAB
  0
TABLE
  2
LAYER
  5
F17
330
0
100
AcDbSymbolTable
 70
     6
  0
LAYER
  5
F25
330
F17
100
AcDbSymbolTableRecord
100
AcDbLayerTableRecord
  2
0
 70
     0
 62
     7
420
 16777215
  6
Continuous
370
    25
390
F24
347
F5A
348
0
  0
LAYER
  5
FEF
330
F17
100
AcDbSymbolTableRecord
100
AcDbLayerTableRecord
  2
Contour
 70
     0
 62
     1
420
 16711680
  6
Continuous
370
    25
390
F24
347
F5A
348
0
  0
LAYER
  5
FF0
330
F17
100
AcDbSymbolTableRecord
100
AcDbLayerTableRecord
  2
Contraintes
 70
     0
 62
     2
420
 16776960
  6
ACAD_ISO07W100
370
    25
390
F24
347
F5A
348
0
  0
LAYER
  5
FF1
330
F17
100
AcDbSymbolTableRecord
100
AcDbLayerTableRecord
  2
Gravure
 70
     0
 62
     6
420
 16711935
  6
Continuous
370
    25
390
F24
347
F5A
348
0
  0
LAYER
  5
FF2
330
F17
100
AcDbSymbolTableRecord
100
AcDbLayerTableRecord
  2
Decoupe
 70
     0
 62
     7
420
 16777215
  6
Continuous
370
    25
390
F24
347
F5A
348
0
  0
LAYER
  5
FF3
330
F17
100
AcDbSymbolTableRecord
100
AcDbLayerTableRecord
  2
Visserie
 70
     0
 62
    30
420
 16744192
  6
Continuous
370
    25
390
F24
347
F5A
348
0
  0
ENDTAB
  0
TABLE
  2
STYLE
  5
F18
330
0
100
AcDbSymbolTable
 70
    13
  0
STYLE
  5
F26
330
F18
100
AcDbSymbolTableRecord
100
AcDbTextStyleTableRecord
  2
Standard
 70
     0
 40
0.0
 41
1.0
 50
0.0
 71
     0
 42
0.2
  3
txt
  4

  0
STYLE
  5
FB3
330
F18
100
AcDbSymbolTableRecord
100
AcDbTextStyleTableRecord
  2
QCADDimTextStyle
 70
     0
 40
0.0
 41
1.0
 50
0.0
 71
     0
 42
0.2
  3

  4

  0
STYLE
  5
FC3
330
F18
100
AcDbSymbolTableRecord
100
AcDbTextStyleTableRecord
  2
textstyle0
 70
     0
 40
0.0
 41
1.0
 50
0.0
 71
     0
 42
0.2
  3
ltypeshp.shx
  4

  0
STYLE
  5
FC4
330
F18
100
AcDbSymbolTableRecord
100
AcDbTextStyleTableRecord
  2
textstyle1
 70
     0
 40
0.0
 41
1.0
 50
0.0
 71
     0
 42
0.2
  3
ltypeshp.shx
  4

  0
STYLE
  5
FD8
330
F18
100
AcDbSymbolTableRecord
100
AcDbTextStyleTableRecord
  2
textstyle2
 70
     0
 40
0.0
 41
1.0
 50
0.0
 71
     0
 42
0.2
  3
qcadshp.shx
  4

  0
STYLE
  5
FDA
330
F18
100
AcDbSymbolTableRecord
100
AcDbTextStyleTableRecord
  2
textstyle3
 70
     0
 40
0.0
 41
1.0
 50
0.0
 71
     0
 42
0.2
  3
qcadshp.shx
  4

  0
STYLE
  5
FDC
330
F18
100
AcDbSymbolTableRecord
100
AcDbTextStyleTableRecord
  2
textstyle4
 70
     0
 40
0.0
 41
1.0
 50
0.0
 71
     0
 42
0.2
  3
ltypeshp.shx
  4

  0
STYLE
  5
FDE
330
F18
100
AcDbSymbolTableRecord
100
AcDbTextStyleTableRecord
  2
textstyle5
 70
     0
 40
0.0
 41
1.0
 50
0.0
 71
     0
 42
0.2
  3
ltypeshp.shx
  4

  0
STYLE
  5
FE0
330
F18
100
AcDbSymbolTableRecord
100
AcDbTextStyleTableRecord
  2
textstyle6
 70
     0
 40
0.0
 41
1.0
 50
0.0
 71
     0
 42
0.2
  3
STANDARD
  4

  0
STYLE
  5
FE5
330
F18
100
AcDbSymbolTableRecord
100
AcDbTextStyleTableRecord
  2
textstyle7
 70
     0
 40
0.0
 41
1.0
 50
0.0
 71
     0
 42
0.2
  3
STANDARD
  4

  0
STYLE
  5
FEA
330
F18
100
AcDbSymbolTableRecord
100
AcDbTextStyleTableRecord
  2
textstyle8
 70
     0
 40
0.0
 41
1.0
 50
0.0
 71
     0
 42
0.2
  3
ltypeshp.shx
  4

  0
STYLE
  5
FEC
330
F18
100
AcDbSymbolTableRecord
100
AcDbTextStyleTableRecord
  2
textstyle9
 70
     0
 40
0.0
 41
1.0
 50
0.0
 71
     0
 42
0.2
  3
ltypeshp.shx
  4

  0
STYLE
  5
FED
330
F18
100
AcDbSymbolTableRecord
100
AcDbTextStyleTableRecord
  2
textstyle10
 70
     0
 40
0.0
 41
1.0
 50
0.0
 71
     0
 42
0.2
  3
ltypeshp.shx
  4

  0
ENDTAB
  0
TABLE
  2
VIEW
  5
F1B
330
0
100
AcDbSymbolTable
 70
     0
  0
ENDTAB
  0
TABLE
  2
UCS
  5
F1C
330
0
100
AcDbSymbolTable
 70
     0
  0
ENDTAB
  0
TABLE
  2
APPID
  5
F1E
330
0
100
AcDbSymbolTable
 70
     2
  0
APPID
  5
F27
330
F1E
100
AcDbSymbolTableRecord
100
AcDbRegAppTableRecord
  2
ACAD
 70
     0
  0
APPID
  5
F82
330
F1E
100
AcDbSymbolTableRecord
100
AcDbRegAppTableRecord
  2
QCAD
 70
     0
  0
ENDTAB
  0
TABLE
  2
DIMSTYLE
  5
F1F
330
0
100
AcDbSymbolTable
 70
     2
100
AcDbDimStyleTable
  0
DIMSTYLE
105
F3B
330
F1F
100
AcDbSymbolTableRecord
100
AcDbDimStyleTableRecord
  2
Standard
 70
     0
178
     0
340
F26
  0
DIMSTYLE
105
FB4
330
F1F
100
AcDbSymbolTableRecord
100
AcDbDimStyleTableRecord
  2
QCADDimStyle
 70
     0
 41
2.5
 42
0.625
 44
1.25
 73
     0
 77
     1
140
2.5
147
0.625
178
     0
340
FB3
  0
ENDTAB
  0
TABLE
  2
BLOCK_RECORD
  5
F16
330
0
100
AcDbSymbolTable
 70
     1
  0
BLOCK_RECORD
  5
F33
330
F16
100
AcDbSymbolTableRecord
100
AcDbBlockTableRecord
  2
*Model_Space
340
F36
 70
     0
280
     1
281
     0
  0
BLOCK_RECORD
  5
F2F
330
F16
100
AcDbSymbolTableRecord
100
AcDbBlockTableRecord
  2
*Paper_Space
340
F32
 70
     0
280
     1
281
     0
  0
BLOCK_RECORD
  5
F37
330
F16
100
AcDbSymbolTableRecord
100
AcDbBlockTableRecord
  2
*Paper_Space0
340
F3A
 70
     0
280
     1
281
     0
  0
ENDTAB
  0
ENDSEC
  0
SECTION
  2
BLOCKS
  0
BLOCK
  5
F34
330
F33
100
AcDbEntity
  8
0
100
AcDbBlockBegin
  2
*Model_Space
 70
     0
 10
0.0
 20
0.0
 30
0.0
  3
*Model_Space
  1
*Model_Space
  0
ENDBLK
  5
F35
330
F33
100
AcDbEntity
  8
0
100
AcDbBlockEnd
  0
BLOCK
  5
F30
330
F2F
100
AcDbEntity
 67
     1
  8
0
100
AcDbBlockBegin
  2
*Paper_Space
 70
     0
 10
0.0
 20
0.0
 30
0.0
  3
*Paper_Space
  1
*Paper_Space
  0
ENDBLK
  5
F31
330
F2F
100
AcDbEntity
 67
     1
  8
0
100
AcDbBlockEnd
  0
BLOCK
  5
F38
330
F37
100
AcDbEntity
  8
0
100
AcDbBlockBegin
  2
*Paper_Space0
 70
     0
 10
0.0
 20
0.0
 30
0.0
  3
*Paper_Space0
  1
*Paper_Space0
  0
ENDBLK
  5
F39
330
F37
100
AcDbEntity
  8
0
100
AcDbBlockEnd
  0
ENDSEC
  0
SECTION
  2
ENTITIES
  0
LINE
  5
39
330
F33
100
AcDbEntity
  8
Contour
100
AcDbLine
 10
260.0
 20
170.0
 30
0.0
 11
275.0
 21
170.0
 31
0.0
  0
LINE
  5
3A
330
F33
100
AcDbEntity
  8
Contour
100
AcDbLine
 10
260.0
 20
155.0
 30
0.0
 11
260.0
 21
170.0
 31
0.0
  0
LINE
  5
3D
330
F33
100
AcDbEntity
  8
Contour
100
AcDbLine
 10
257.0
 20
155.0
 30
0.0
 11
260.0
 21
155.0
 31
0.0
  0
LINE
  5
3E
330
F33
100
AcDbEntity
  8
Contour
100
AcDbLine
 10
257.0
 20
145.0
 30
0.0
 11
257.0
 21
155.0
 31
0.0
  0
LINE
  5
3F
330
F33
100
AcDbEntity
  8
Contour
100
AcDbLine
 10
257.0
 20
145.0
 30
0.0
 11
260.0
 21
145.0
 31
0.0
  0
LINE
  5
D46
330
F33
100
AcDbEntity
  8
Contour
100
AcDbLine
 10
260.0
 20
141.5
 30
0.0
 11
260.0
 21
145.0
 31
0.0
  0
LINE
  5
D45
330
F33
100
AcDbEntity
  8
Contour
100
AcDbLine
 10
260.0
 20
135.0
 30
0.0
 11
260.0
 21
138.5
 31
0.0
  0
LINE
  5
41
330
F33
100
AcDbEntity
  8
Contour
100
AcDbLine
 10
257.0
 20
135.0
 30
0.0
 11
260.0
 21
135.0
 31
0.0
  0
LINE
  5
42
330
F33
100
AcDbEntity
  8
Contour
100
AcDbLine
 10
257.0
 20
125.0
 30
0.0
 11
257.0
 21
135.0
 31
0.0
  0
LINE
  5
43
330
F33
100
AcDbEntity
  8
Contour
100
AcDbLine
 10
257.0
 20
125.0
 30
0.0
 11
260.0
 21
125.0
 31
0.0
  0
LINE
  5
44
330
F33
100
AcDbEntity
  8
Contour
100
AcDbLine
 10
260.0
 20
115.0
 30
0.0
 11
260.0
 21
125.0
 31
0.0
  0
LINE
  5
45
330
F33
100
AcDbEntity
  8
Contour
100
AcDbLine
 10
257.0
 20
115.0
 30
0.0
 11
260.0
 21
115.0
 31
0.0
  0
LINE
  5
46
330
F33
100
AcDbEntity
  8
Contour
100
AcDbLine
 10
257.0
 20
105.0
 30
0.0
 11
257.0
 21
115.0
 31
0.0
  0
LINE
  5
47
330
F33
100
AcDbEntity
  8
Contour
100
AcDbLine
 10
257.0
 20
105.0
 30
0.0
 11
260.0
 21
105.0
 31
0.0
  0
LINE
  5
48
330
F33
100
AcDbEntity
  8
Contour
100
AcDbLine
 10
260.0
 20
95.0
 30
0.0
 11
260.0
 21
105.0
 31
0.0
  0
LINE
  5
49
330
F33
100
AcDbEntity
  8
Contour
100
AcDbLine
 10
257.0
 20
95.0
 30
0.0
 11
260.0
 21
95.0
 31
0.0
  0
LINE
  5
4A
330
F33
100
AcDbEntity
  8
Contour
100
AcDbLine
 10
257.0
 20
85.0
 30
0.0
 11
257.0
 21
95.0
 31
0.0
  0
LINE
  5
4B
330
F33
100
AcDbEntity
  8
Contour
100
AcDbLine
 10
257.0
 20
85.0
 30
0.0
 11
260.0
 21
85.0
 31
0.0
  0
LINE
  5
52
330
F33
100
AcDbEntity
  8
Contour
100
AcDbLine
 10
345.0
 20
173.0
 30
0.0
 11
345.0
 21
170.0
 31
0.0
  0
LINE
  5
53
330
F33
100
AcDbEntity
  8
Contour
100
AcDbLine
 10
335.0
 20
173.0
 30
0.0
 11
345.0
 21
173.0
 31
0.0
  0
LINE
  5
54
330
F33
100
AcDbEntity
  8
Contour
100
AcDbLine
 10
335.0
 20
173.0
 30
0.0
 11
335.0
 21
170.0
 31
0.0
  0
LINE
  5
55
330
F33
100
AcDbEntity
  8
Contour
100
AcDbLine
 10
325.0
 20
170.0
 30
0.0
 11
335.0
 21
170.0
 31
0.0
  0
LINE
  5
56
330
F33
100
AcDbEntity
  8
Contour
100
AcDbLine
 10
325.0
 20
173.0
 30
0.0
 11
325.0
 21
170.0
 31
0.0
  0
LINE
  5
57
330
F33
100
AcDbEntity
  8
Contour
100
AcDbLine
 10
315.0
 20
173.0
 30
0.0
 11
325.0
 21
173.0
 31
0.0
  0
LINE
  5
58
330
F33
100
AcDbEntity
  8
Contour
100
AcDbLine
 10
315.0
 20
173.0
 30
0.0
 11
315.0
 21
170.0
 31
0.0
  0
LINE
  5
59
330
F33
100
AcDbEntity
  8
Contour
100
AcDbLine
 10
305.0
 20
170.0
 30
0.0
 11
315.0
 21
170.0
 31
0.0
  0
LINE
  5
5A
330
F33
100
AcDbEntity
  8
Contour
100
AcDbLine
 10
305.0
 20
173.0
 30
0.0
 11
305.0
 21
170.0
 31
0.0
  0
LINE
  5
5B
330
F33
100
AcDbEntity
  8
Contour
100
AcDbLine
 10
295.0
 20
173.0
 30
0.0
 11
305.0
 21
173.0
 31
0.0
  0
LINE
  5
5C
330
F33
100
AcDbEntity
  8
Contour
100
AcDbLine
 10
295.0
 20
173.0
 30
0.0
 11
295.0
 21
170.0
 31
0.0
  0
LINE
  5
D32
330
F33
100
AcDbEntity
  8
Contour
100
AcDbLine
 10
291.5
 20
170.0
 30
0.0
 11
295.0
 21
170.0
 31
0.0
  0
LINE
  5
D31
330
F33
100
AcDbEntity
  8
Contour
100
AcDbLine
 10
285.0
 20
170.0
 30
0.0
 11
288.5
 21
170.0
 31
0.0
  0
LINE
  5
5E
330
F33
100
AcDbEntity
  8
Contour
100
AcDbLine
 10
285.0
 20
173.0
 30
0.0
 11
285.0
 21
170.0
 31
0.0
  0
LINE
  5
5F
330
F33
100
AcDbEntity
  8
Contour
100
AcDbLine
 10
275.0
 20
173.0
 30
0.0
 11
285.0
 21
173.0
 31
0.0
  0
LINE
  5
60
330
F33
100
AcDbEntity
  8
Contour
100
AcDbLine
 10
275.0
 20
173.0
 30
0.0
 11
275.0
 21
170.0
 31
0.0
  0
LINE
  5
63
330
F33
100
AcDbEntity
  8
Contour
100
AcDbLine
 10
253.0
 20
65.0
 30
0.0
 11
250.0
 21
65.0
 31
0.0
  0
LINE
  5
64
330
F33
100
AcDbEntity
  8
Contour
100
AcDbLine
 10
253.0000000000001
 20
75.0
 30
0.0
 11
253.0
 21
65.0
 31
0.0
  0
LINE
  5
65
330
F33
100
AcDbEntity
  8
Contour
100
AcDbLine
 10
253.0000000000001
 20
75.0
 30
0.0
 11
250.0
 21
75.0
 31
0.0
  0
LINE
  5
66
330
F33
100
AcDbEntity
  8
Contour
100
AcDbLine
 10
250.0
 20
85.0
 30
0.0
 11
250.0
 21
75.0
 31
0.0
  0
LINE
  5
67
330
F33
100
AcDbEntity
  8
Contour
100
AcDbLine
 10
253.0
 20
85.0
 30
0.0
 11
250.0
 21
85.0
 31
0.0
  0
LINE
  5
68
330
F33
100
AcDbEntity
  8
Contour
100
AcDbLine
 10
252.9999999999999
 20
95.0
 30
0.0
 11
253.0
 21
85.0
 31
0.0
  0
LINE
  5
69
330
F33
100
AcDbEntity
  8
Contour
100
AcDbLine
 10
252.9999999999999
 20
95.0
 30
0.0
 11
250.0
 21
95.0
 31
0.0
  0
LINE
  5
6A
330
F33
100
AcDbEntity
  8
Contour
100
AcDbLine
 10
250.0
 20
105.0
 30
0.0
 11
250.0
 21
95.0
 31
0.0
  0
LINE
  5
6B
330
F33
100
AcDbEntity
  8
Contour
100
AcDbLine
 10
253.0
 20
105.0
 30
0.0
 11
250.0
 21
105.0
 31
0.0
  0
LINE
  5
6C
330
F33
100
AcDbEntity
  8
Contour
100
AcDbLine
 10
253.0
 20
115.0
 30
0.0
 11
253.0
 21
105.0
 31
0.0
  0
LINE
  5
6D
330
F33
100
AcDbEntity
  8
Contour
100
AcDbLine
 10
253.0
 20
115.0
 30
0.0
 11
250.0
 21
115.0
 31
0.0
  0
LINE
  5
6E
330
F33
100
AcDbEntity
  8
Contour
100
AcDbLine
 10
250.0
 20
125.0
 30
0.0
 11
250.0
 21
115.0
 31
0.0
  0
LINE
  5
6F
330
F33
100
AcDbEntity
  8
Contour
100
AcDbLine
 10
253.0000000000001
 20
125.0
 30
0.0
 11
250.0
 21
125.0
 31
0.0
  0
LINE
  5
70
330
F33
100
AcDbEntity
  8
Contour
100
AcDbLine
 10
253.0
 20
135.0
 30
0.0
 11
253.0000000000001
 21
125.0
 31
0.0
  0
LINE
  5
71
330
F33
100
AcDbEntity
  8
Contour
100
AcDbLine
 10
253.0
 20
135.0
 30
0.0
 11
250.0
 21
135.0
 31
0.0
  0
LINE
  5
95
330
F33
100
AcDbEntity
  8
Contraintes
100
AcDbLine
 10
260.0
 20
155.0
 30
0.0
 11
265.0
 21
155.0
 31
0.0
  0
LINE
  5
98
330
F33
100
AcDbEntity
  8
Contraintes
100
AcDbLine
 10
275.0
 20
165.0
 30
0.0
 11
275.0
 21
170.0
 31
0.0
  0
LINE
  5
9D
330
F33
100
AcDbEntity
  8
Decoupe
100
AcDbLine
 10
265.0
 20
145.0
 30
0.0
 11
268.0
 21
145.0
 31
0.0
  0
LINE
  5
9E
330
F33
100
AcDbEntity
  8
Decoupe
100
AcDbLine
 10
268.0
 20
145.0
 30
0.0
 11
268.0
 21
155.0
 31
0.0
  0
LINE
  5
9F
330
F33
100
AcDbEntity
  8
Decoupe
100
AcDbLine
 10
268.0
 20
155.0
 30
0.0
 11
265.0
 21
155.0
 31
0.0
  0
LINE
  5
A0
330
F33
100
AcDbEntity
  8
Decoupe
100
AcDbLine
 10
265.0
 20
155.0
 30
0.0
 11
265.0
 21
145.0
 31
0.0
  0
LINE
  5
A5
330
F33
100
AcDbEntity
  8
Contraintes
100
AcDbLine
 10
268.0
 20
135.0
 30
0.0
 11
268.0
 21
145.0
 31
0.0
  0
LINE
  5
A6
330
F33
100
AcDbEntity
  8
Decoupe
100
AcDbLine
 10
265.0
 20
125.0
 30
0.0
 11
268.0
 21
125.0
 31
0.0
  0
LINE
  5
A7
330
F33
100
AcDbEntity
  8
Decoupe
100
AcDbLine
 10
268.0
 20
125.0
 30
0.0
 11
268.0
 21
135.0
 31
0.0
  0
LINE
  5
A8
330
F33
100
AcDbEntity
  8
Decoupe
100
AcDbLine
 10
268.0
 20
135.0
 30
0.0
 11
265.0
 21
135.0
 31
0.0
  0
LINE
  5
A9
330
F33
100
AcDbEntity
  8
Decoupe
100
AcDbLine
 10
265.0
 20
135.0
 30
0.0
 11
265.0
 21
125.0
 31
0.0
  0
LINE
  5
AA
330
F33
100
AcDbEntity
  8
Contraintes
100
AcDbLine
 10
268.0
 20
115.0
 30
0.0
 11
268.0
 21
125.0
 31
0.0
  0
LINE
  5
AB
330
F33
100
AcDbEntity
  8
Decoupe
100
AcDbLine
 10
265.0
 20
105.0
 30
0.0
 11
268.0
 21
105.0
 31
0.0
  0
LINE
  5
AC
330
F33
100
AcDbEntity
  8
Decoupe
100
AcDbLine
 10
268.0
 20
105.0
 30
0.0
 11
268.0
 21
115.0
 31
0.0
  0
LINE
  5
AD
330
F33
100
AcDbEntity
  8
Decoupe
100
AcDbLine
 10
268.0
 20
115.0
 30
0.0
 11
265.0
 21
115.0
 31
0.0
  0
LINE
  5
AE
330
F33
100
AcDbEntity
  8
Decoupe
100
AcDbLine
 10
265.0
 20
115.0
 30
0.0
 11
265.0
 21
105.0
 31
0.0
  0
LINE
  5
AF
330
F33
100
AcDbEntity
  8
Contraintes
100
AcDbLine
 10
268.0
 20
95.0
 30
0.0
 11
268.0
 21
105.0
 31
0.0
  0
LINE
  5
B0
330
F33
100
AcDbEntity
  8
Decoupe
100
AcDbLine
 10
265.0
 20
85.0
 30
0.0
 11
268.0
 21
85.0
 31
0.0
  0
LINE
  5
B1
330
F33
100
AcDbEntity
  8
Decoupe
100
AcDbLine
 10
268.0
 20
85.0
 30
0.0
 11
268.0
 21
95.0
 31
0.0
  0
LINE
  5
B2
330
F33
100
AcDbEntity
  8
Decoupe
100
AcDbLine
 10
268.0
 20
95.0
 30
0.0
 11
265.0
 21
95.0
 31
0.0
  0
LINE
  5
B3
330
F33
100
AcDbEntity
  8
Decoupe
100
AcDbLine
 10
265.0
 20
95.0
 30
0.0
 11
265.0
 21
85.0
 31
0.0
  0
LINE
  5
DB
330
F33
100
AcDbEntity
  8
Decoupe
100
AcDbLine
 10
335.0
 20
165.0
 30
0.0
 11
335.0
 21
162.0
 31
0.0
  0
LINE
  5
DC
330
F33
100
AcDbEntity
  8
Decoupe
100
AcDbLine
 10
335.0
 20
162.0
 30
0.0
 11
345.0
 21
162.0
 31
0.0
  0
LINE
  5
DD
330
F33
100
AcDbEntity
  8
Decoupe
100
AcDbLine
 10
345.0
 20
162.0
 30
0.0
 11
345.0
 21
165.0
 31
0.0
  0
LINE
  5
DE
330
F33
100
AcDbEntity
  8
Decoupe
100
AcDbLine
 10
345.0
 20
165.0
 30
0.0
 11
335.0
 21
165.0
 31
0.0
  0
LINE
  5
DF
330
F33
100
AcDbEntity
  8
Contraintes
100
AcDbLine
 10
325.0
 20
162.0
 30
0.0
 11
335.0
 21
162.0
 31
0.0
  0
LINE
  5
E0
330
F33
100
AcDbEntity
  8
Decoupe
100
AcDbLine
 10
315.0
 20
165.0
 30
0.0
 11
315.0
 21
162.0
 31
0.0
  0
LINE
  5
E1
330
F33
100
AcDbEntity
  8
Decoupe
100
AcDbLine
 10
315.0
 20
162.0
 30
0.0
 11
325.0
 21
162.0
 31
0.0
  0
LINE
  5
E2
330
F33
100
AcDbEntity
  8
Decoupe
100
AcDbLine
 10
325.0
 20
162.0
 30
0.0
 11
325.0
 21
165.0
 31
0.0
  0
LINE
  5
E3
330
F33
100
AcDbEntity
  8
Decoupe
100
AcDbLine
 10
325.0
 20
165.0
 30
0.0
 11
315.0
 21
165.0
 31
0.0
  0
LINE
  5
E4
330
F33
100
AcDbEntity
  8
Contraintes
100
AcDbLine
 10
305.0
 20
162.0
 30
0.0
 11
315.0
 21
162.0
 31
0.0
  0
LINE
  5
E5
330
F33
100
AcDbEntity
  8
Decoupe
100
AcDbLine
 10
295.0
 20
165.0
 30
0.0
 11
295.0
 21
162.0
 31
0.0
  0
LINE
  5
E6
330
F33
100
AcDbEntity
  8
Decoupe
100
AcDbLine
 10
295.0
 20
162.0
 30
0.0
 11
305.0
 21
162.0
 31
0.0
  0
LINE
  5
E7
330
F33
100
AcDbEntity
  8
Decoupe
100
AcDbLine
 10
305.0
 20
162.0
 30
0.0
 11
305.0
 21
165.0
 31
0.0
  0
LINE
  5
E8
330
F33
100
AcDbEntity
  8
Decoupe
100
AcDbLine
 10
305.0
 20
165.0
 30
0.0
 11
295.0
 21
165.0
 31
0.0
  0
LINE
  5
E9
330
F33
100
AcDbEntity
  8
Contraintes
100
AcDbLine
 10
285.0
 20
162.0
 30
0.0
 11
295.0
 21
162.0
 31
0.0
  0
LINE
  5
EA
330
F33
100
AcDbEntity
  8
Decoupe
100
AcDbLine
 10
275.0
 20
165.0
 30
0.0
 11
275.0
 21
162.0
 31
0.0
  0
LINE
  5
EB
330
F33
100
AcDbEntity
  8
Decoupe
100
AcDbLine
 10
275.0
 20
162.0
 30
0.0
 11
285.0
 21
162.0
 31
0.0
  0
LINE
  5
EC
330
F33
100
AcDbEntity
  8
Decoupe
100
AcDbLine
 10
285.0
 20
162.0
 30
0.0
 11
285.0
 21
165.0
 31
0.0
  0
LINE
  5
ED
330
F33
100
AcDbEntity
  8
Decoupe
100
AcDbLine
 10
285.0
 20
165.0
 30
0.0
 11
275.0
 21
165.0
 31
0.0
  0
LINE
  5
108
330
F33
100
AcDbEntity
  8
Contour
100
AcDbLine
 10
250.0
 20
50.0
 30
0.0
 11
250.0
 21
65.0
 31
0.0
  0
LINE
  5
109
330
F33
100
AcDbEntity
  8
Contour
100
AcDbLine
 10
250.0
 20
155.0
 30
0.0
 11
250.0
 21
170.0
 31
0.0
  0
LINE
  5
10A
330
F33
100
AcDbEntity
  8
Contour
100
AcDbLine
 10
245.0
 20
170.0
 30
0.0
 11
250.0
 21
170.0
 31
0.0
  0
LINE
  5
10B
330
F33
100
AcDbEntity
  8
Contour
100
AcDbLine
 10
245.0
 20
50.0
 30
0.0
 11
250.0
 21
50.0
 31
0.0
  0
LINE
  5
10C
330
F33
100
AcDbEntity
  8
Contour
100
AcDbLine
 10
245.0
 20
47.0
 30
0.0
 11
245.0
 21
50.0
 31
0.0
  0
LINE
  5
10D
330
F33
100
AcDbEntity
  8
Contour
100
AcDbLine
 10
245.0
 20
170.0
 30
0.0
 11
245.0
 21
173.0
 31
0.0
  0
LINE
  5
10E
330
F33
100
AcDbEntity
  8
Contour
100
AcDbLine
 10
240.0
 20
173.0
 30
0.0
 11
245.0
 21
173.0
 31
0.0
  0
LINE
  5
10F
330
F33
100
AcDbEntity
  8
Contour
100
AcDbLine
 10
240.0
 20
47.0
 30
0.0
 11
245.0
 21
47.0
 31
0.0
  0
LINE
  5
110
330
F33
100
AcDbEntity
  8
Contour
100
AcDbLine
 10
240.0
 20
170.0
 30
0.0
 11
240.0
 21
173.0
 31
0.0
  0
LINE
  5
111
330
F33
100
AcDbEntity
  8
Contour
100
AcDbLine
 10
240.0
 20
47.0
 30
0.0
 11
240.0
 21
50.0
 31
0.0
  0
LINE
  5
112
330
F33
100
AcDbEntity
  8
Contour
100
AcDbLine
 10
235.0
 20
170.0
 30
0.0
 11
240.0
 21
170.0
 31
0.0
  0
LINE
  5
113
330
F33
100
AcDbEntity
  8
Contour
100
AcDbLine
 10
235.0
 20
50.0
 30
0.0
 11
240.0
 21
50.0
 31
0.0
  0
LINE
  5
115
330
F33
100
AcDbEntity
  8
Contour
100
AcDbLine
 10
235.0
 20
165.0
 30
0.0
 11
235.0
 21
170.0
 31
0.0
  0
LINE
  5
135
330
F33
100
AcDbEntity
  8
Contour
100
AcDbLine
 10
235.0
 20
162.0
 30
0.0
 11
242.5
 21
162.0
 31
0.0
  0
LINE
  5
136
330
F33
100
AcDbEntity
  8
Contour
100
AcDbLine
 10
242.5
 20
162.0
 30
0.0
 11
242.5
 21
165.0
 31
0.0
  0
LINE
  5
137
330
F33
100
AcDbEntity
  8
Contour
100
AcDbLine
 10
242.5
 20
165.0
 30
0.0
 11
235.0
 21
165.0
 31
0.0
  0
LINE
  5
138
330
F33
100
AcDbEntity
  8
Contour
100
AcDbLine
 10
235.0
 20
50.0
 30
0.0
 11
235.0
 21
55.0
 31
0.0
  0
LINE
  5
139
330
F33
100
AcDbEntity
  8
Contour
100
AcDbLine
 10
235.0
 20
55.0
 30
0.0
 11
242.5
 21
55.0
 31
0.0
  0
LINE
  5
13A
330
F33
100
AcDbEntity
  8
Contour
100
AcDbLine
 10
242.5
 20
55.0
 30
0.0
 11
242.5
 21
58.00000000000001
 31
0.0
  0
LINE
  5
13B
330
F33
100
AcDbEntity
  8
Contour
100
AcDbLine
 10
242.5
 20
58.00000000000001
 30
0.0
 11
235.0
 21
58.00000000000001
 31
0.0
  0
LINE
  5
13C
330
F33
100
AcDbEntity
  8
Contour
100
AcDbLine
 10
235.0
 20
58.00000000000001
 30
0.0
 11
235.0
 21
162.0
 31
0.0
  0
LINE
  5
375
330
F33
100
AcDbEntity
  8
Contour
100
AcDbLine
 10
344.9999999999999
 20
177.0
 30
0.0
 11
344.9999999999999
 21
179.9999999999999
 31
0.0
  0
LINE
  5
376
330
F33
100
AcDbEntity
  8
Contour
100
AcDbLine
 10
334.9999999999999
 20
176.9999999999999
 30
0.0
 11
344.9999999999999
 21
177.0
 31
0.0
  0
LINE
  5
377
330
F33
100
AcDbEntity
  8
Contour
100
AcDbLine
 10
334.9999999999999
 20
176.9999999999999
 30
0.0
 11
334.9999999999999
 21
179.9999999999999
 31
0.0
  0
LINE
  5
378
330
F33
100
AcDbEntity
  8
Contour
100
AcDbLine
 10
324.9999999999999
 20
179.9999999999999
 30
0.0
 11
334.9999999999999
 21
179.9999999999999
 31
0.0
  0
LINE
  5
379
330
F33
100
AcDbEntity
  8
Contour
100
AcDbLine
 10
325.0
 20
176.9999999999999
 30
0.0
 11
324.9999999999999
 21
179.9999999999999
 31
0.0
  0
LINE
  5
37A
330
F33
100
AcDbEntity
  8
Contour
100
AcDbLine
 10
314.9999999999999
 20
177.0000000000001
 30
0.0
 11
325.0
 21
176.9999999999999
 31
0.0
  0
LINE
  5
37B
330
F33
100
AcDbEntity
  8
Contour
100
AcDbLine
 10
314.9999999999999
 20
177.0000000000001
 30
0.0
 11
315.0
 21
180.0
 31
0.0
  0
LINE
  5
37C
330
F33
100
AcDbEntity
  8
Contour
100
AcDbLine
 10
304.9999999999999
 20
180.0
 30
0.0
 11
315.0
 21
180.0
 31
0.0
  0
LINE
  5
37D
330
F33
100
AcDbEntity
  8
Contour
100
AcDbLine
 10
304.9999999999999
 20
177.0
 30
0.0
 11
304.9999999999999
 21
180.0
 31
0.0
  0
LINE
  5
37E
330
F33
100
AcDbEntity
  8
Contour
100
AcDbLine
 10
294.9999999999999
 20
177.0
 30
0.0
 11
304.9999999999999
 21
177.0
 31
0.0
  0
LINE
  5
37F
330
F33
100
AcDbEntity
  8
Contour
100
AcDbLine
 10
294.9999999999999
 20
177.0
 30
0.0
 11
294.9999999999999
 21
180.0
 31
0.0
  0
LINE
  5
380
330
F33
100
AcDbEntity
  8
Contour
100
AcDbLine
 10
285.0
 20
180.0
 30
0.0
 11
294.9999999999999
 21
180.0
 31
0.0
  0
LINE
  5
381
330
F33
100
AcDbEntity
  8
Contour
100
AcDbLine
 10
285.0
 20
176.9999999999999
 30
0.0
 11
285.0
 21
180.0
 31
0.0
  0
LINE
  5
382
330
F33
100
AcDbEntity
  8
Contour
100
AcDbLine
 10
275.0
 20
177.0
 30
0.0
 11
285.0
 21
176.9999999999999
 31
0.0
  0
LINE
  5
383
330
F33
100
AcDbEntity
  8
Contour
100
AcDbLine
 10
275.0
 20
177.0
 30
0.0
 11
275.0
 21
180.0
 31
0.0
  0
LINE
  5
386
330
F33
100
AcDbEntity
  8
Contour
100
AcDbLine
 10
260.0
 20
185.0
 30
0.0
 11
260.0
 21
180.0
 31
0.0
  0
LINE
  5
387
330
F33
100
AcDbEntity
  8
Contour
100
AcDbLine
 10
380.0
 20
184.9999999999999
 30
0.0
 11
380.0
 21
179.9999999999999
 31
0.0
  0
LINE
  5
388
330
F33
100
AcDbEntity
  8
Contour
100
AcDbLine
 10
383.0000000000001
 20
184.9999999999999
 30
0.0
 11
380.0
 21
184.9999999999999
 31
0.0
  0
LINE
  5
389
330
F33
100
AcDbEntity
  8
Contour
100
AcDbLine
 10
260.0
 20
185.0
 30
0.0
 11
257.0
 21
185.0
 31
0.0
  0
LINE
  5
38A
330
F33
100
AcDbEntity
  8
Contour
100
AcDbLine
 10
257.0
 20
190.0
 30
0.0
 11
257.0
 21
185.0
 31
0.0
  0
LINE
  5
38B
330
F33
100
AcDbEntity
  8
Contour
100
AcDbLine
 10
383.0
 20
189.9999999999999
 30
0.0
 11
383.0000000000001
 21
184.9999999999999
 31
0.0
  0
LINE
  5
38C
330
F33
100
AcDbEntity
  8
Contour
100
AcDbLine
 10
260.0
 20
190.0
 30
0.0
 11
257.0
 21
190.0
 31
0.0
  0
LINE
  5
38D
330
F33
100
AcDbEntity
  8
Contour
100
AcDbLine
 10
383.0
 20
189.9999999999999
 30
0.0
 11
380.0
 21
189.9999999999999
 31
0.0
  0
LINE
  5
38E
330
F33
100
AcDbEntity
  8
Contour
100
AcDbLine
 10
260.0
 20
195.0
 30
0.0
 11
260.0
 21
190.0
 31
0.0
  0
LINE
  5
38F
330
F33
100
AcDbEntity
  8
Contour
100
AcDbLine
 10
380.0
 20
195.0000000000001
 30
0.0
 11
380.0
 21
189.9999999999999
 31
0.0
  0
LINE
  5
390
330
F33
100
AcDbEntity
  8
Contour
100
AcDbLine
 10
265.0
 20
180.0
 30
0.0
 11
260.0
 21
180.0
 31
0.0
  0
LINE
  5
391
330
F33
100
AcDbEntity
  8
Contour
100
AcDbLine
 10
372.0
 20
179.9999999999999
 30
0.0
 11
372.0
 21
187.4999999999998
 31
0.0
  0
LINE
  5
392
330
F33
100
AcDbEntity
  8
Contour
100
AcDbLine
 10
372.0
 20
187.4999999999998
 30
0.0
 11
375.0
 21
187.4999999999998
 31
0.0
  0
LINE
  5
393
330
F33
100
AcDbEntity
  8
Contour
100
AcDbLine
 10
375.0
 20
187.4999999999998
 30
0.0
 11
375.0
 21
179.9999999999999
 31
0.0
  0
LINE
  5
394
330
F33
100
AcDbEntity
  8
Contour
100
AcDbLine
 10
380.0
 20
179.9999999999999
 30
0.0
 11
375.0
 21
179.9999999999999
 31
0.0
  0
LINE
  5
399
330
F33
100
AcDbEntity
  8
Contour
100
AcDbLine
 10
265.0
 20
180.0
 30
0.0
 11
265.0
 21
187.5
 31
0.0
  0
LINE
  5
39A
330
F33
100
AcDbEntity
  8
Contour
100
AcDbLine
 10
265.0
 20
187.5
 30
0.0
 11
268.0
 21
187.5
 31
0.0
  0
LINE
  5
39B
330
F33
100
AcDbEntity
  8
Contour
100
AcDbLine
 10
268.0
 20
187.5
 30
0.0
 11
268.0
 21
180.0
 31
0.0
  0
LINE
  5
39C
330
F33
100
AcDbEntity
  8
Contour
100
AcDbLine
 10
259.9999999999999
 20
195.0000000000001
 30
0.0
 11
380.0
 21
195.0000000000001
 31
0.0
  0
LINE
  5
39D
330
F33
100
AcDbEntity
  8
Contour
100
AcDbLine
 10
268.0
 20
180.0
 30
0.0
 11
275.0
 21
180.0
 31
0.0
  0
LINE
  5
39E
330
F33
100
AcDbEntity
  8
Contour
100
AcDbLine
 10
365.0
 20
179.9999999999999
 30
0.0
 11
372.0
 21
179.9999999999999
 31
0.0
  0
LINE
  5
55C
330
F33
100
AcDbEntity
  8
Contour
100
AcDbLine
 10
257.0
 20
280.0
 30
0.0
 11
257.0
 21
290.0
 31
0.0
  0
LINE
  5
55D
330
F33
100
AcDbEntity
  8
Contour
100
AcDbLine
 10
257.0
 20
280.0
 30
0.0
 11
260.0
 21
280.0
 31
0.0
  0
LINE
  5
55E
330
F33
100
AcDbEntity
  8
Contour
100
AcDbLine
 10
260.0
 20
270.0
 30
0.0
 11
260.0
 21
280.0
 31
0.0
  0
LINE
  5
55F
330
F33
100
AcDbEntity
  8
Contour
100
AcDbLine
 10
257.0
 20
270.0
 30
0.0
 11
260.0
 21
270.0
 31
0.0
  0
LINE
  5
560
330
F33
100
AcDbEntity
  8
Contour
100
AcDbLine
 10
257.0
 20
260.0
 30
0.0
 11
257.0
 21
270.0
 31
0.0
  0
LINE
  5
561
330
F33
100
AcDbEntity
  8
Contour
100
AcDbLine
 10
257.0
 20
260.0
 30
0.0
 11
260.0
 21
260.0
 31
0.0
  0
LINE
  5
562
330
F33
100
AcDbEntity
  8
Contour
100
AcDbLine
 10
260.0
 20
250.0
 30
0.0
 11
260.0
 21
260.0
 31
0.0
  0
LINE
  5
563
330
F33
100
AcDbEntity
  8
Contour
100
AcDbLine
 10
257.0
 20
250.0
 30
0.0
 11
260.0
 21
250.0
 31
0.0
  0
LINE
  5
564
330
F33
100
AcDbEntity
  8
Contour
100
AcDbLine
 10
257.0
 20
240.0
 30
0.0
 11
257.0
 21
250.0
 31
0.0
  0
LINE
  5
565
330
F33
100
AcDbEntity
  8
Contour
100
AcDbLine
 10
257.0
 20
240.0
 30
0.0
 11
260.0
 21
240.0
 31
0.0
  0
LINE
  5
566
330
F33
100
AcDbEntity
  8
Contour
100
AcDbLine
 10
260.0
 20
230.0
 30
0.0
 11
260.0
 21
240.0
 31
0.0
  0
LINE
  5
590
330
F33
100
AcDbEntity
  8
Contour
100
AcDbLine
 10
380.0
 20
240.0
 30
0.0
 11
380.0
 21
230.0
 31
0.0
  0
LINE
  5
591
330
F33
100
AcDbEntity
  8
Contour
100
AcDbLine
 10
383.0
 20
240.0
 30
0.0
 11
380.0
 21
240.0
 31
0.0
  0
LINE
  5
592
330
F33
100
AcDbEntity
  8
Contour
100
AcDbLine
 10
382.9999999999999
 20
250.0
 30
0.0
 11
383.0
 21
240.0
 31
0.0
  0
LINE
  5
593
330
F33
100
AcDbEntity
  8
Contour
100
AcDbLine
 10
382.9999999999999
 20
250.0
 30
0.0
 11
380.0
 21
250.0
 31
0.0
  0
LINE
  5
594
330
F33
100
AcDbEntity
  8
Contour
100
AcDbLine
 10
380.0
 20
260.0
 30
0.0
 11
380.0
 21
250.0
 31
0.0
  0
LINE
  5
595
330
F33
100
AcDbEntity
  8
Contour
100
AcDbLine
 10
383.0
 20
260.0
 30
0.0
 11
380.0
 21
260.0
 31
0.0
  0
LINE
  5
596
330
F33
100
AcDbEntity
  8
Contour
100
AcDbLine
 10
383.0
 20
270.0
 30
0.0
 11
383.0
 21
260.0
 31
0.0
  0
LINE
  5
597
330
F33
100
AcDbEntity
  8
Contour
100
AcDbLine
 10
383.0
 20
270.0
 30
0.0
 11
380.0
 21
270.0
 31
0.0
  0
LINE
  5
598
330
F33
100
AcDbEntity
  8
Contour
100
AcDbLine
 10
380.0
 20
280.0
 30
0.0
 11
380.0
 21
270.0
 31
0.0
  0
LINE
  5
599
330
F33
100
AcDbEntity
  8
Contour
100
AcDbLine
 10
383.0000000000001
 20
280.0
 30
0.0
 11
380.0
 21
280.0
 31
0.0
  0
LINE
  5
59A
330
F33
100
AcDbEntity
  8
Contour
100
AcDbLine
 10
383.0
 20
290.0
 30
0.0
 11
383.0000000000001
 21
280.0
 31
0.0
  0
LINE
  5
5ED
330
F33
100
AcDbEntity
  8
Contour
100
AcDbLine
 10
257.0
 20
290.0
 30
0.0
 11
383.0
 21
290.0
 31
0.0
  0
LINE
  5
5EF
330
F33
100
AcDbEntity
  8
Contour
100
AcDbLine
 10
230.0
 20
50.0
 30
0.0
 11
230.0
 21
170.0
 31
0.0
  0
LINE
  5
5F5
330
F33
100
AcDbEntity
  8
Decoupe
100
AcDbLine
 10
335.0
 20
268.0
 30
0.0
 11
335.0
 21
265.0
 31
0.0
  0
LINE
  5
5F6
330
F33
100
AcDbEntity
  8
Decoupe
100
AcDbLine
 10
335.0
 20
265.0
 30
0.0
 11
345.0
 21
265.0
 31
0.0
  0
LINE
  5
5F7
330
F33
100
AcDbEntity
  8
Decoupe
100
AcDbLine
 10
345.0
 20
265.0
 30
0.0
 11
345.0
 21
268.0
 31
0.0
  0
LINE
  5
5F8
330
F33
100
AcDbEntity
  8
Decoupe
100
AcDbLine
 10
345.0
 20
268.0
 30
0.0
 11
335.0
 21
268.0
 31
0.0
  0
LINE
  5
5F9
330
F33
100
AcDbEntity
  8
Contraintes
100
AcDbLine
 10
325.0
 20
265.0
 30
0.0
 11
335.0
 21
265.0
 31
0.0
  0
LINE
  5
5FA
330
F33
100
AcDbEntity
  8
Decoupe
100
AcDbLine
 10
315.0
 20
268.0
 30
0.0
 11
315.0
 21
265.0
 31
0.0
  0
LINE
  5
5FB
330
F33
100
AcDbEntity
  8
Decoupe
100
AcDbLine
 10
315.0
 20
265.0
 30
0.0
 11
325.0
 21
265.0
 31
0.0
  0
LINE
  5
5FC
330
F33
100
AcDbEntity
  8
Decoupe
100
AcDbLine
 10
325.0
 20
265.0
 30
0.0
 11
325.0
 21
268.0
 31
0.0
  0
LINE
  5
5FD
330
F33
100
AcDbEntity
  8
Decoupe
100
AcDbLine
 10
325.0
 20
268.0
 30
0.0
 11
315.0
 21
268.0
 31
0.0
  0
LINE
  5
5FE
330
F33
100
AcDbEntity
  8
Contraintes
100
AcDbLine
 10
305.0
 20
265.0
 30
0.0
 11
315.0
 21
265.0
 31
0.0
  0
LINE
  5
5FF
330
F33
100
AcDbEntity
  8
Decoupe
100
AcDbLine
 10
295.0
 20
268.0
 30
0.0
 11
295.0
 21
265.0
 31
0.0
  0
LINE
  5
600
330
F33
100
AcDbEntity
  8
Decoupe
100
AcDbLine
 10
295.0
 20
265.0
 30
0.0
 11
305.0
 21
265.0
 31
0.0
  0
LINE
  5
601
330
F33
100
AcDbEntity
  8
Decoupe
100
AcDbLine
 10
305.0
 20
265.0
 30
0.0
 11
305.0
 21
268.0
 31
0.0
  0
LINE
  5
602
330
F33
100
AcDbEntity
  8
Decoupe
100
AcDbLine
 10
305.0
 20
268.0
 30
0.0
 11
295.0
 21
268.0
 31
0.0
  0
LINE
  5
603
330
F33
100
AcDbEntity
  8
Contraintes
100
AcDbLine
 10
285.0
 20
265.0
 30
0.0
 11
295.0
 21
265.0
 31
0.0
  0
LINE
  5
604
330
F33
100
AcDbEntity
  8
Decoupe
100
AcDbLine
 10
275.0
 20
268.0
 30
0.0
 11
275.0
 21
265.0
 31
0.0
  0
LINE
  5
605
330
F33
100
AcDbEntity
  8
Decoupe
100
AcDbLine
 10
275.0
 20
265.0
 30
0.0
 11
285.0
 21
265.0
 31
0.0
  0
LINE
  5
606
330
F33
100
AcDbEntity
  8
Decoupe
100
AcDbLine
 10
285.0
 20
265.0
 30
0.0
 11
285.0
 21
268.0
 31
0.0
  0
LINE
  5
607
330
F33
100
AcDbEntity
  8
Decoupe
100
AcDbLine
 10
285.0
 20
268.0
 30
0.0
 11
275.0
 21
268.0
 31
0.0
  0
LINE
  5
663
330
F33
100
AcDbEntity
  8
Contour
100
AcDbLine
 10
189.9999999999998
 20
173.0000000000001
 30
0.0
 11
199.9999999999998
 21
173.0000000000001
 31
0.0
  0
LINE
  5
664
330
F33
100
AcDbEntity
  8
Contour
100
AcDbLine
 10
189.9999999999998
 20
173.0000000000001
 30
0.0
 11
189.9999999999999
 21
170.0000000000001
 31
0.0
  0
LINE
  5
665
330
F33
100
AcDbEntity
  8
Contour
100
AcDbLine
 10
179.9999999999999
 20
170.0000000000001
 30
0.0
 11
189.9999999999999
 21
170.0000000000001
 31
0.0
  0
LINE
  5
666
330
F33
100
AcDbEntity
  8
Contour
100
AcDbLine
 10
179.9999999999999
 20
173.0000000000001
 30
0.0
 11
179.9999999999999
 21
170.0000000000001
 31
0.0
  0
LINE
  5
667
330
F33
100
AcDbEntity
  8
Contour
100
AcDbLine
 10
170.0
 20
173.0000000000001
 30
0.0
 11
179.9999999999999
 21
173.0000000000001
 31
0.0
  0
LINE
  5
668
330
F33
100
AcDbEntity
  8
Contour
100
AcDbLine
 10
170.0
 20
173.0000000000001
 30
0.0
 11
170.0
 21
170.0000000000001
 31
0.0
  0
LINE
  5
669
330
F33
100
AcDbEntity
  8
Contour
100
AcDbLine
 10
159.9999999999999
 20
170.0000000000001
 30
0.0
 11
170.0
 21
170.0000000000001
 31
0.0
  0
LINE
  5
66A
330
F33
100
AcDbEntity
  8
Contour
100
AcDbLine
 10
159.9999999999999
 20
173.0000000000001
 30
0.0
 11
159.9999999999999
 21
170.0000000000001
 31
0.0
  0
LINE
  5
66B
330
F33
100
AcDbEntity
  8
Contour
100
AcDbLine
 10
149.9999999999999
 20
173.0000000000001
 30
0.0
 11
159.9999999999999
 21
173.0000000000001
 31
0.0
  0
LINE
  5
66C
330
F33
100
AcDbEntity
  8
Contour
100
AcDbLine
 10
149.9999999999999
 20
173.0000000000001
 30
0.0
 11
150.0
 21
170.0000000000001
 31
0.0
  0
LINE
  5
66D
330
F33
100
AcDbEntity
  8
Contour
100
AcDbLine
 10
139.9999999999999
 20
170.0000000000001
 30
0.0
 11
150.0
 21
170.0000000000001
 31
0.0
  0
LINE
  5
66E
330
F33
100
AcDbEntity
  8
Contour
100
AcDbLine
 10
150.0
 20
50.0
 30
0.0
 11
140.0
 21
50.0
 31
0.0
  0
LINE
  5
66F
330
F33
100
AcDbEntity
  8
Contour
100
AcDbLine
 10
149.9999999999999
 20
47.0
 30
0.0
 11
150.0
 21
50.0
 31
0.0
  0
LINE
  5
670
330
F33
100
AcDbEntity
  8
Contour
100
AcDbLine
 10
160.0
 20
47.00000000000011
 30
0.0
 11
149.9999999999999
 21
47.0
 31
0.0
  0
LINE
  5
671
330
F33
100
AcDbEntity
  8
Contour
100
AcDbLine
 10
160.0
 20
47.00000000000011
 30
0.0
 11
160.0
 21
50.0
 31
0.0
  0
LINE
  5
672
330
F33
100
AcDbEntity
  8
Contour
100
AcDbLine
 10
170.0
 20
50.0
 30
0.0
 11
160.0
 21
50.0
 31
0.0
  0
LINE
  5
673
330
F33
100
AcDbEntity
  8
Contour
100
AcDbLine
 10
170.0
 20
47.0
 30
0.0
 11
170.0
 21
50.0
 31
0.0
  0
LINE
  5
674
330
F33
100
AcDbEntity
  8
Contour
100
AcDbLine
 10
180.0
 20
47.0
 30
0.0
 11
170.0
 21
47.0
 31
0.0
  0
LINE
  5
675
330
F33
100
AcDbEntity
  8
Contour
100
AcDbLine
 10
180.0
 20
47.0
 30
0.0
 11
180.0
 21
50.0
 31
0.0
  0
LINE
  5
676
330
F33
100
AcDbEntity
  8
Contour
100
AcDbLine
 10
190.0
 20
50.0
 30
0.0
 11
180.0
 21
50.0
 31
0.0
  0
LINE
  5
677
330
F33
100
AcDbEntity
  8
Contour
100
AcDbLine
 10
190.0
 20
46.99999999999989
 30
0.0
 11
190.0
 21
50.0
 31
0.0
  0
LINE
  5
678
330
F33
100
AcDbEntity
  8
Contour
100
AcDbLine
 10
200.0
 20
47.0
 30
0.0
 11
190.0
 21
46.99999999999989
 31
0.0
  0
LINE
  5
67A
330
F33
100
AcDbEntity
  8
Contour
100
AcDbLine
 10
139.9999999999999
 20
170.0000000000001
 30
0.0
 11
139.9999999999998
 21
50.00000000000007
 31
0.0
  0
LINE
  5
67C
330
F33
100
AcDbEntity
  8
Contraintes
100
AcDbLine
 10
140.0
 20
65.0
 30
0.0
 11
165.0
 21
65.0
 31
0.0
  0
LINE
  5
690
330
F33
100
AcDbEntity
  8
Decoupe
100
AcDbLine
 10
162.0
 20
125.0
 30
0.0
 11
165.0
 21
125.0
 31
0.0
  0
LINE
  5
691
330
F33
100
AcDbEntity
  8
Decoupe
100
AcDbLine
 10
165.0
 20
125.0
 30
0.0
 11
165.0
 21
135.0
 31
0.0
  0
LINE
  5
692
330
F33
100
AcDbEntity
  8
Decoupe
100
AcDbLine
 10
165.0
 20
135.0
 30
0.0
 11
162.0
 21
135.0
 31
0.0
  0
LINE
  5
693
330
F33
100
AcDbEntity
  8
Decoupe
100
AcDbLine
 10
162.0
 20
135.0
 30
0.0
 11
162.0
 21
125.0
 31
0.0
  0
LINE
  5
694
330
F33
100
AcDbEntity
  8
Contraintes
100
AcDbLine
 10
165.0
 20
115.0
 30
0.0
 11
165.0
 21
125.0
 31
0.0
  0
LINE
  5
695
330
F33
100
AcDbEntity
  8
Decoupe
100
AcDbLine
 10
162.0000000000001
 20
105.0
 30
0.0
 11
165.0
 21
105.0
 31
0.0
  0
LINE
  5
696
330
F33
100
AcDbEntity
  8
Decoupe
100
AcDbLine
 10
165.0
 20
105.0
 30
0.0
 11
165.0
 21
115.0
 31
0.0
  0
LINE
  5
697
330
F33
100
AcDbEntity
  8
Decoupe
100
AcDbLine
 10
165.0
 20
115.0
 30
0.0
 11
162.0
 21
115.0
 31
0.0
  0
LINE
  5
698
330
F33
100
AcDbEntity
  8
Decoupe
100
AcDbLine
 10
162.0
 20
115.0
 30
0.0
 11
162.0000000000001
 21
105.0
 31
0.0
  0
LINE
  5
699
330
F33
100
AcDbEntity
  8
Contraintes
100
AcDbLine
 10
165.0
 20
95.0
 30
0.0
 11
165.0
 21
105.0
 31
0.0
  0
LINE
  5
69A
330
F33
100
AcDbEntity
  8
Decoupe
100
AcDbLine
 10
162.0
 20
85.0
 30
0.0
 11
165.0
 21
85.0
 31
0.0
  0
LINE
  5
69B
330
F33
100
AcDbEntity
  8
Decoupe
100
AcDbLine
 10
165.0
 20
85.0
 30
0.0
 11
165.0
 21
95.0
 31
0.0
  0
LINE
  5
69C
330
F33
100
AcDbEntity
  8
Decoupe
100
AcDbLine
 10
165.0
 20
95.0
 30
0.0
 11
162.0000000000001
 21
95.0
 31
0.0
  0
LINE
  5
69D
330
F33
100
AcDbEntity
  8
Decoupe
100
AcDbLine
 10
162.0000000000001
 20
95.0
 30
0.0
 11
162.0
 21
85.0
 31
0.0
  0
LINE
  5
69E
330
F33
100
AcDbEntity
  8
Contraintes
100
AcDbLine
 10
165.0
 20
75.0
 30
0.0
 11
165.0
 21
85.0
 31
0.0
  0
LINE
  5
69F
330
F33
100
AcDbEntity
  8
Decoupe
100
AcDbLine
 10
162.0
 20
65.0
 30
0.0
 11
165.0
 21
65.0
 31
0.0
  0
LINE
  5
6A0
330
F33
100
AcDbEntity
  8
Decoupe
100
AcDbLine
 10
165.0
 20
65.0
 30
0.0
 11
165.0
 21
75.0
 31
0.0
  0
LINE
  5
6A1
330
F33
100
AcDbEntity
  8
Decoupe
100
AcDbLine
 10
165.0
 20
75.0
 30
0.0
 11
162.0
 21
75.0
 31
0.0
  0
LINE
  5
6A2
330
F33
100
AcDbEntity
  8
Decoupe
100
AcDbLine
 10
162.0
 20
75.0
 30
0.0
 11
162.0
 21
65.0
 31
0.0
  0
LINE
  5
6A5
330
F33
100
AcDbEntity
  8
Contraintes
100
AcDbLine
 10
140.0
 20
65.0
 30
0.0
 11
140.0
 21
50.0
 31
0.0
  0
LINE
  5
704
330
F33
100
AcDbEntity
  8
Contraintes
100
AcDbLine
 10
162.0
 20
58.0
 30
0.0
 11
162.0
 21
65.0
 31
0.0
  0
LINE
  5
709
330
F33
100
AcDbEntity
  8
Contraintes
100
AcDbLine
 10
162.0
 20
155.0
 30
0.0
 11
162.0
 21
162.0
 31
0.0
  0
LINE
  5
70E
330
F33
100
AcDbEntity
  8
Contraintes
100
AcDbLine
 10
268.0
 20
268.0
 30
0.0
 11
275.0
 21
268.0
 31
0.0
  0
LINE
  5
70F
330
F33
100
AcDbEntity
  8
Contraintes
100
AcDbLine
 10
365.0
 20
268.0
 30
0.0
 11
372.0
 21
268.0
 31
0.0
  0
LINE
  5
718
330
F33
100
AcDbEntity
  8
Contraintes
100
AcDbLine
 10
162.0
 20
58.0
 30
0.0
 11
157.0
 21
58.0
 31
0.0
  0
LINE
  5
719
330
F33
100
AcDbEntity
  8
Contraintes
100
AcDbLine
 10
162.0
 20
162.0
 30
0.0
 11
157.0
 21
162.0
 31
0.0
  0
LINE
  5
71A
330
F33
100
AcDbEntity
  8
Contraintes
100
AcDbLine
 10
268.0
 20
268.0
 30
0.0
 11
268.0
 21
273.0
 31
0.0
  0
LINE
  5
71B
330
F33
100
AcDbEntity
  8
Contraintes
100
AcDbLine
 10
372.0
 20
268.0
 30
0.0
 11
372.0
 21
273.0
 31
0.0
  0
LINE
  5
720
330
F33
100
AcDbEntity
  8
Decoupe
100
AcDbLine
 10
157.0
 20
55.0
 30
0.0
 11
157.0
 21
58.0
 31
0.0
  0
LINE
  5
721
330
F33
100
AcDbEntity
  8
Decoupe
100
AcDbLine
 10
157.0
 20
58.0
 30
0.0
 11
152.0
 21
58.0
 31
0.0
  0
LINE
  5
722
330
F33
100
AcDbEntity
  8
Decoupe
100
AcDbLine
 10
152.0
 20
58.0
 30
0.0
 11
152.0
 21
55.0
 31
0.0
  0
LINE
  5
723
330
F33
100
AcDbEntity
  8
Decoupe
100
AcDbLine
 10
152.0
 20
55.0
 30
0.0
 11
157.0
 21
55.0
 31
0.0
  0
LINE
  5
724
330
F33
100
AcDbEntity
  8
Decoupe
100
AcDbLine
 10
157.0
 20
162.0
 30
0.0
 11
157.0000000000001
 21
165.0
 31
0.0
  0
LINE
  5
725
330
F33
100
AcDbEntity
  8
Decoupe
100
AcDbLine
 10
157.0000000000001
 20
165.0
 30
0.0
 11
152.0
 21
165.0
 31
0.0
  0
LINE
  5
726
330
F33
100
AcDbEntity
  8
Decoupe
100
AcDbLine
 10
152.0
 20
165.0
 30
0.0
 11
152.0000000000001
 21
162.0
 31
0.0
  0
LINE
  5
727
330
F33
100
AcDbEntity
  8
Decoupe
100
AcDbLine
 10
152.0000000000001
 20
162.0
 30
0.0
 11
157.0
 21
162.0
 31
0.0
  0
LINE
  5
728
330
F33
100
AcDbEntity
  8
Decoupe
100
AcDbLine
 10
265.0
 20
273.0
 30
0.0
 11
268.0
 21
273.0
 31
0.0
  0
LINE
  5
729
330
F33
100
AcDbEntity
  8
Decoupe
100
AcDbLine
 10
268.0
 20
273.0
 30
0.0
 11
268.0
 21
278.0
 31
0.0
  0
LINE
  5
72A
330
F33
100
AcDbEntity
  8
Decoupe
100
AcDbLine
 10
268.0
 20
278.0
 30
0.0
 11
265.0
 21
278.0
 31
0.0
  0
LINE
  5
72B
330
F33
100
AcDbEntity
  8
Decoupe
100
AcDbLine
 10
265.0
 20
278.0
 30
0.0
 11
265.0
 21
273.0
 31
0.0
  0
LINE
  5
72C
330
F33
100
AcDbEntity
  8
Decoupe
100
AcDbLine
 10
372.0
 20
273.0
 30
0.0
 11
375.0
 21
273.0
 31
0.0
  0
LINE
  5
72D
330
F33
100
AcDbEntity
  8
Decoupe
100
AcDbLine
 10
375.0
 20
273.0
 30
0.0
 11
375.0
 21
278.0
 31
0.0
  0
LINE
  5
72E
330
F33
100
AcDbEntity
  8
Decoupe
100
AcDbLine
 10
375.0
 20
278.0
 30
0.0
 11
372.0
 21
278.0
 31
0.0
  0
LINE
  5
72F
330
F33
100
AcDbEntity
  8
Decoupe
100
AcDbLine
 10
372.0
 20
278.0
 30
0.0
 11
372.0
 21
273.0
 31
0.0
  0
LINE
  5
95F
330
F33
100
AcDbEntity
  8
Contour
100
AcDbLine
 10
209.9999999999999
 20
173.0
 30
0.0
 11
219.9999999999999
 21
173.0
 31
0.0
  0
LINE
  5
960
330
F33
100
AcDbEntity
  8
Contour
100
AcDbLine
 10
209.9999999999999
 20
173.0
 30
0.0
 11
210.0
 21
170.0
 31
0.0
  0
LINE
  5
961
330
F33
100
AcDbEntity
  8
Contour
100
AcDbLine
 10
199.9999999999999
 20
170.0
 30
0.0
 11
210.0
 21
170.0
 31
0.0
  0
LINE
  5
962
330
F33
100
AcDbEntity
  8
Contour
100
AcDbLine
 10
199.9999999999998
 20
173.0
 30
0.0
 11
199.9999999999999
 21
170.0
 31
0.0
  0
LINE
  5
965
330
F33
100
AcDbEntity
  8
Contour
100
AcDbLine
 10
219.9999999999999
 20
170.0
 30
0.0
 11
230.0
 21
170.0
 31
0.0
  0
LINE
  5
966
330
F33
100
AcDbEntity
  8
Contour
100
AcDbLine
 10
219.9999999999999
 20
173.0
 30
0.0
 11
219.9999999999999
 21
170.0
 31
0.0
  0
LINE
  5
967
330
F33
100
AcDbEntity
  8
Contour
100
AcDbLine
 10
200.0
 20
47.0
 30
0.0
 11
200.0
 21
50.0
 31
0.0
  0
LINE
  5
968
330
F33
100
AcDbEntity
  8
Contour
100
AcDbLine
 10
210.0
 20
50.0
 30
0.0
 11
200.0
 21
50.0
 31
0.0
  0
LINE
  5
969
330
F33
100
AcDbEntity
  8
Contour
100
AcDbLine
 10
210.0
 20
46.99999999999989
 30
0.0
 11
210.0
 21
50.0
 31
0.0
  0
LINE
  5
96A
330
F33
100
AcDbEntity
  8
Contour
100
AcDbLine
 10
220.0
 20
47.0
 30
0.0
 11
210.0
 21
46.99999999999989
 31
0.0
  0
LINE
  5
96B
330
F33
100
AcDbEntity
  8
Contour
100
AcDbLine
 10
220.0
 20
47.0
 30
0.0
 11
220.0
 21
50.0
 31
0.0
  0
LINE
  5
96C
330
F33
100
AcDbEntity
  8
Contour
100
AcDbLine
 10
230.0
 20
50.0
 30
0.0
 11
220.0
 21
50.0
 31
0.0
  0
LINE
  5
96F
330
F33
100
AcDbEntity
  8
Contraintes
100
AcDbLine
 10
257.0
 20
290.0
 30
0.0
 11
275.0
 21
290.0
 31
0.0
  0
LINE
  5
970
330
F33
100
AcDbEntity
  8
Contraintes
100
AcDbLine
 10
275.0
 20
265.0
 30
0.0
 11
275.0
 21
290.0
 31
0.0
  0
LINE
  5
971
330
F33
100
AcDbEntity
  8
Contour
100
AcDbLine
 10
257.0
 20
230.0
 30
0.0
 11
260.0
 21
230.0
 31
0.0
  0
LINE
  5
972
330
F33
100
AcDbEntity
  8
Contour
100
AcDbLine
 10
257.0
 20
220.0
 30
0.0
 11
257.0
 21
230.0
 31
0.0
  0
LINE
  5
973
330
F33
100
AcDbEntity
  8
Contour
100
AcDbLine
 10
257.0
 20
220.0
 30
0.0
 11
260.0
 21
220.0
 31
0.0
  0
LINE
  5
974
330
F33
100
AcDbEntity
  8
Contour
100
AcDbLine
 10
260.0
 20
210.0
 30
0.0
 11
260.0
 21
220.0
 31
0.0
  0
LINE
  5
975
330
F33
100
AcDbEntity
  8
Contour
100
AcDbLine
 10
257.0
 20
210.0
 30
0.0
 11
260.0
 21
210.0
 31
0.0
  0
LINE
  5
976
330
F33
100
AcDbEntity
  8
Contour
100
AcDbLine
 10
257.0
 20
200.0
 30
0.0
 11
257.0
 21
210.0
 31
0.0
  0
LINE
  5
979
330
F33
100
AcDbEntity
  8
Contour
100
AcDbLine
 10
380.0
 20
220.0
 30
0.0
 11
380.0
 21
210.0
 31
0.0
  0
LINE
  5
97A
330
F33
100
AcDbEntity
  8
Contour
100
AcDbLine
 10
383.0
 20
220.0
 30
0.0
 11
380.0
 21
220.0
 31
0.0
  0
LINE
  5
97B
330
F33
100
AcDbEntity
  8
Contour
100
AcDbLine
 10
382.9999999999999
 20
230.0
 30
0.0
 11
383.0
 21
220.0
 31
0.0
  0
LINE
  5
97C
330
F33
100
AcDbEntity
  8
Contour
100
AcDbLine
 10
382.9999999999999
 20
230.0
 30
0.0
 11
380.0
 21
230.0
 31
0.0
  0
LINE
  5
97F
330
F33
100
AcDbEntity
  8
Contour
100
AcDbLine
 10
382.9999999999999
 20
210.0
 30
0.0
 11
383.0
 21
199.9999999999999
 31
0.0
  0
LINE
  5
980
330
F33
100
AcDbEntity
  8
Contour
100
AcDbLine
 10
382.9999999999999
 20
210.0
 30
0.0
 11
380.0
 21
210.0
 31
0.0
  0
LINE
  5
981
330
F33
100
AcDbEntity
  8
Decoupe
100
AcDbLine
 10
355.0
 20
268.0
 30
0.0
 11
355.0
 21
265.0
 31
0.0
  0
LINE
  5
982
330
F33
100
AcDbEntity
  8
Decoupe
100
AcDbLine
 10
355.0
 20
265.0
 30
0.0
 11
365.0
 21
265.0
 31
0.0
  0
LINE
  5
983
330
F33
100
AcDbEntity
  8
Decoupe
100
AcDbLine
 10
365.0
 20
265.0
 30
0.0
 11
365.0
 21
268.0
 31
0.0
  0
LINE
  5
984
330
F33
100
AcDbEntity
  8
Decoupe
100
AcDbLine
 10
365.0
 20
268.0
 30
0.0
 11
355.0
 21
268.0
 31
0.0
  0
LINE
  5
985
330
F33
100
AcDbEntity
  8
Contraintes
100
AcDbLine
 10
345.0
 20
265.0
 30
0.0
 11
355.0
 21
265.0
 31
0.0
  0
LINE
  5
986
330
F33
100
AcDbEntity
  8
Contour
100
AcDbLine
 10
365.0000000000001
 20
177.0
 30
0.0
 11
365.0000000000001
 21
179.9999999999999
 31
0.0
  0
LINE
  5
987
330
F33
100
AcDbEntity
  8
Contour
100
AcDbLine
 10
355.0000000000001
 20
176.9999999999999
 30
0.0
 11
365.0000000000001
 21
177.0
 31
0.0
  0
LINE
  5
988
330
F33
100
AcDbEntity
  8
Contour
100
AcDbLine
 10
355.0000000000001
 20
176.9999999999999
 30
0.0
 11
355.0000000000001
 21
179.9999999999999
 31
0.0
  0
LINE
  5
989
330
F33
100
AcDbEntity
  8
Contour
100
AcDbLine
 10
344.9999999999999
 20
179.9999999999999
 30
0.0
 11
355.0000000000001
 21
179.9999999999999
 31
0.0
  0
LINE
  5
A6A
330
F33
100
AcDbEntity
  8
Decoupe
100
AcDbLine
 10
162.0
 20
145.0
 30
0.0
 11
165.0
 21
145.0
 31
0.0
  0
LINE
  5
A6B
330
F33
100
AcDbEntity
  8
Decoupe
100
AcDbLine
 10
165.0
 20
145.0
 30
0.0
 11
165.0
 21
155.0
 31
0.0
  0
LINE
  5
A6C
330
F33
100
AcDbEntity
  8
Decoupe
100
AcDbLine
 10
165.0
 20
155.0
 30
0.0
 11
162.0
 21
155.0
 31
0.0
  0
LINE
  5
A6D
330
F33
100
AcDbEntity
  8
Decoupe
100
AcDbLine
 10
162.0
 20
155.0
 30
0.0
 11
162.0
 21
145.0
 31
0.0
  0
LINE
  5
A6E
330
F33
100
AcDbEntity
  8
Contraintes
100
AcDbLine
 10
165.0
 20
135.0
 30
0.0
 11
165.0
 21
145.0
 31
0.0
  0
LINE
  5
A71
330
F33
100
AcDbEntity
  8
Contour
100
AcDbLine
 10
250.0
 20
145.0
 30
0.0
 11
250.0
 21
135.0
 31
0.0
  0
LINE
  5
A72
330
F33
100
AcDbEntity
  8
Contour
100
AcDbLine
 10
253.0000000000001
 20
145.0
 30
0.0
 11
250.0
 21
145.0
 31
0.0
  0
LINE
  5
A73
330
F33
100
AcDbEntity
  8
Contour
100
AcDbLine
 10
253.0
 20
155.0
 30
0.0
 11
253.0000000000001
 21
145.0
 31
0.0
  0
LINE
  5
A74
330
F33
100
AcDbEntity
  8
Contour
100
AcDbLine
 10
253.0
 20
155.0
 30
0.0
 11
250.0
 21
155.0
 31
0.0
  0
LINE
  5
D48
330
F33
100
AcDbEntity
  8
Contour
100
AcDbLine
 10
260.0
 20
81.5
 30
0.0
 11
260.0
 21
85.0
 31
0.0
  0
LINE
  5
D47
330
F33
100
AcDbEntity
  8
Contour
100
AcDbLine
 10
260.0
 20
75.0
 30
0.0
 11
260.0
 21
78.5
 31
0.0
  0
LINE
  5
A76
330
F33
100
AcDbEntity
  8
Contour
100
AcDbLine
 10
257.0
 20
75.0
 30
0.0
 11
260.0
 21
75.0
 31
0.0
  0
LINE
  5
A77
330
F33
100
AcDbEntity
  8
Contour
100
AcDbLine
 10
257.0
 20
65.0
 30
0.0
 11
257.0
 21
75.0
 31
0.0
  0
LINE
  5
A78
330
F33
100
AcDbEntity
  8
Contour
100
AcDbLine
 10
257.0
 20
65.0
 30
0.0
 11
260.0
 21
65.0
 31
0.0
  0
LINE
  5
A79
330
F33
100
AcDbEntity
  8
Contour
100
AcDbLine
 10
260.0
 20
50.0
 30
0.0
 11
260.0
 21
65.0
 31
0.0
  0
LINE
  5
A7A
330
F33
100
AcDbEntity
  8
Contour
100
AcDbLine
 10
365.0
 20
173.0
 30
0.0
 11
365.0
 21
170.0
 31
0.0
  0
LINE
  5
A7B
330
F33
100
AcDbEntity
  8
Contour
100
AcDbLine
 10
355.0
 20
173.0
 30
0.0
 11
365.0
 21
173.0
 31
0.0
  0
LINE
  5
A7C
330
F33
100
AcDbEntity
  8
Contour
100
AcDbLine
 10
355.0
 20
173.0
 30
0.0
 11
355.0
 21
170.0
 31
0.0
  0
LINE
  5
D34
330
F33
100
AcDbEntity
  8
Contour
100
AcDbLine
 10
351.5
 20
170.0
 30
0.0
 11
355.0
 21
170.0
 31
0.0
  0
LINE
  5
D33
330
F33
100
AcDbEntity
  8
Contour
100
AcDbLine
 10
345.0
 20
170.0
 30
0.0
 11
348.5
 21
170.0
 31
0.0
  0
LINE
  5
A7E
330
F33
100
AcDbEntity
  8
Contour
100
AcDbLine
 10
365.0
 20
170.0
 30
0.0
 11
380.0
 21
170.0
 31
0.0
  0
LINE
  5
A7F
330
F33
100
AcDbEntity
  8
Decoupe
100
AcDbLine
 10
355.0
 20
165.0
 30
0.0
 11
355.0
 21
162.0
 31
0.0
  0
LINE
  5
A80
330
F33
100
AcDbEntity
  8
Decoupe
100
AcDbLine
 10
355.0
 20
162.0
 30
0.0
 11
365.0
 21
162.0
 31
0.0
  0
LINE
  5
A81
330
F33
100
AcDbEntity
  8
Decoupe
100
AcDbLine
 10
365.0
 20
162.0
 30
0.0
 11
365.0
 21
165.0
 31
0.0
  0
LINE
  5
A82
330
F33
100
AcDbEntity
  8
Decoupe
100
AcDbLine
 10
365.0
 20
165.0
 30
0.0
 11
355.0
 21
165.0
 31
0.0
  0
LINE
  5
A83
330
F33
100
AcDbEntity
  8
Contraintes
100
AcDbLine
 10
345.0
 20
162.0
 30
0.0
 11
355.0
 21
162.0
 31
0.0
  0
LINE
  5
A84
330
F33
100
AcDbEntity
  8
Contraintes
100
AcDbLine
 10
268.0
 20
75.0
 30
0.0
 11
268.0
 21
85.0
 31
0.0
  0
LINE
  5
A85
330
F33
100
AcDbEntity
  8
Decoupe
100
AcDbLine
 10
265.0
 20
65.0
 30
0.0
 11
268.0
 21
65.0
 31
0.0
  0
LINE
  5
A86
330
F33
100
AcDbEntity
  8
Decoupe
100
AcDbLine
 10
268.0
 20
65.0
 30
0.0
 11
268.0
 21
75.0
 31
0.0
  0
LINE
  5
A87
330
F33
100
AcDbEntity
  8
Decoupe
100
AcDbLine
 10
268.0
 20
75.0
 30
0.0
 11
265.0
 21
75.0
 31
0.0
  0
LINE
  5
A88
330
F33
100
AcDbEntity
  8
Decoupe
100
AcDbLine
 10
265.0
 20
75.0
 30
0.0
 11
265.0
 21
65.0
 31
0.0
  0
LINE
  5
A89
330
F33
100
AcDbEntity
  8
Contour
100
AcDbLine
 10
380.0
 20
50.0
 30
0.0
 11
364.9999999999999
 21
50.0
 31
0.0
  0
LINE
  5
A8A
330
F33
100
AcDbEntity
  8
Contour
100
AcDbLine
 10
380.0
 20
65.0
 30
0.0
 11
380.0
 21
50.0
 31
0.0
  0
LINE
  5
A8B
330
F33
100
AcDbEntity
  8
Contour
100
AcDbLine
 10
382.9999999999999
 20
65.0
 30
0.0
 11
380.0
 21
65.0
 31
0.0
  0
LINE
  5
A8C
330
F33
100
AcDbEntity
  8
Contour
100
AcDbLine
 10
383.0
 20
75.0
 30
0.0
 11
382.9999999999999
 21
65.0
 31
0.0
  0
LINE
  5
A8D
330
F33
100
AcDbEntity
  8
Contour
100
AcDbLine
 10
383.0
 20
75.0
 30
0.0
 11
380.0
 21
75.0
 31
0.0
  0
LINE
  5
D56
330
F33
100
AcDbEntity
  8
Contour
100
AcDbLine
 10
380.0
 20
78.5
 30
0.0
 11
380.0
 21
75.0
 31
0.0
  0
LINE
  5
D55
330
F33
100
AcDbEntity
  8
Contour
100
AcDbLine
 10
380.0
 20
85.0
 30
0.0
 11
380.0
 21
81.5
 31
0.0
  0
LINE
  5
A8F
330
F33
100
AcDbEntity
  8
Contour
100
AcDbLine
 10
383.0
 20
85.0
 30
0.0
 11
380.0
 21
85.0
 31
0.0
  0
LINE
  5
A90
330
F33
100
AcDbEntity
  8
Contour
100
AcDbLine
 10
383.0
 20
95.0
 30
0.0
 11
383.0
 21
85.0
 31
0.0
  0
LINE
  5
A91
330
F33
100
AcDbEntity
  8
Contour
100
AcDbLine
 10
383.0
 20
95.0
 30
0.0
 11
380.0
 21
95.0
 31
0.0
  0
LINE
  5
A92
330
F33
100
AcDbEntity
  8
Contour
100
AcDbLine
 10
380.0
 20
105.0
 30
0.0
 11
380.0
 21
95.0
 31
0.0
  0
LINE
  5
A93
330
F33
100
AcDbEntity
  8
Contour
100
AcDbLine
 10
383.0
 20
105.0
 30
0.0
 11
380.0
 21
105.0
 31
0.0
  0
LINE
  5
A94
330
F33
100
AcDbEntity
  8
Contour
100
AcDbLine
 10
383.0
 20
115.0
 30
0.0
 11
383.0
 21
105.0
 31
0.0
  0
LINE
  5
A95
330
F33
100
AcDbEntity
  8
Contour
100
AcDbLine
 10
383.0
 20
115.0
 30
0.0
 11
380.0
 21
115.0
 31
0.0
  0
LINE
  5
A96
330
F33
100
AcDbEntity
  8
Contour
100
AcDbLine
 10
380.0
 20
125.0
 30
0.0
 11
380.0
 21
115.0
 31
0.0
  0
LINE
  5
A97
330
F33
100
AcDbEntity
  8
Contour
100
AcDbLine
 10
383.0
 20
125.0
 30
0.0
 11
380.0
 21
125.0
 31
0.0
  0
LINE
  5
A98
330
F33
100
AcDbEntity
  8
Contour
100
AcDbLine
 10
383.0
 20
135.0
 30
0.0
 11
383.0
 21
125.0
 31
0.0
  0
LINE
  5
A99
330
F33
100
AcDbEntity
  8
Contour
100
AcDbLine
 10
383.0
 20
135.0
 30
0.0
 11
380.0
 21
135.0
 31
0.0
  0
LINE
  5
A9A
330
F33
100
AcDbEntity
  8
Contour
100
AcDbLine
 10
294.9999999999999
 20
47.00000000000006
 30
0.0
 11
295.0
 21
50.0
 31
0.0
  0
LINE
  5
A9B
330
F33
100
AcDbEntity
  8
Contour
100
AcDbLine
 10
305.0
 20
47.0
 30
0.0
 11
294.9999999999999
 21
47.00000000000006
 31
0.0
  0
LINE
  5
A9C
330
F33
100
AcDbEntity
  8
Contour
100
AcDbLine
 10
305.0
 20
47.0
 30
0.0
 11
305.0
 21
50.0
 31
0.0
  0
LINE
  5
A9D
330
F33
100
AcDbEntity
  8
Contour
100
AcDbLine
 10
314.9999999999999
 20
50.00000000000006
 30
0.0
 11
305.0
 21
50.0
 31
0.0
  0
LINE
  5
A9E
330
F33
100
AcDbEntity
  8
Contour
100
AcDbLine
 10
315.0
 20
47.0
 30
0.0
 11
314.9999999999999
 21
50.00000000000006
 31
0.0
  0
LINE
  5
A9F
330
F33
100
AcDbEntity
  8
Contour
100
AcDbLine
 10
325.0000000000001
 20
46.99999999999994
 30
0.0
 11
315.0
 21
47.0
 31
0.0
  0
LINE
  5
AA0
330
F33
100
AcDbEntity
  8
Contour
100
AcDbLine
 10
325.0000000000001
 20
46.99999999999994
 30
0.0
 11
325.0
 21
50.0
 31
0.0
  0
LINE
  5
AA1
330
F33
100
AcDbEntity
  8
Contour
100
AcDbLine
 10
335.0
 20
50.0
 30
0.0
 11
325.0
 21
50.0
 31
0.0
  0
LINE
  5
AA2
330
F33
100
AcDbEntity
  8
Contour
100
AcDbLine
 10
335.0
 20
47.0
 30
0.0
 11
335.0
 21
50.0
 31
0.0
  0
LINE
  5
AA3
330
F33
100
AcDbEntity
  8
Contour
100
AcDbLine
 10
345.0
 20
47.0
 30
0.0
 11
335.0
 21
47.0
 31
0.0
  0
LINE
  5
AA4
330
F33
100
AcDbEntity
  8
Contour
100
AcDbLine
 10
345.0
 20
47.0
 30
0.0
 11
344.9999999999999
 21
50.0
 31
0.0
  0
LINE
  5
D38
330
F33
100
AcDbEntity
  8
Contour
100
AcDbLine
 10
348.4999999999999
 20
50.0
 30
0.0
 11
344.9999999999999
 21
50.0
 31
0.0
  0
LINE
  5
D37
330
F33
100
AcDbEntity
  8
Contour
100
AcDbLine
 10
354.9999999999999
 20
50.0
 30
0.0
 11
351.4999999999999
 21
50.0
 31
0.0
  0
LINE
  5
AA6
330
F33
100
AcDbEntity
  8
Contour
100
AcDbLine
 10
355.0
 20
47.0
 30
0.0
 11
354.9999999999999
 21
50.0
 31
0.0
  0
LINE
  5
AA7
330
F33
100
AcDbEntity
  8
Contour
100
AcDbLine
 10
365.0
 20
47.0
 30
0.0
 11
355.0
 21
47.0
 31
0.0
  0
LINE
  5
AA8
330
F33
100
AcDbEntity
  8
Contour
100
AcDbLine
 10
365.0
 20
47.0
 30
0.0
 11
364.9999999999999
 21
50.0
 31
0.0
  0
LINE
  5
AA9
330
F33
100
AcDbEntity
  8
Contraintes
100
AcDbLine
 10
380.0
 20
65.0
 30
0.0
 11
375.0
 21
65.0
 31
0.0
  0
LINE
  5
AAA
330
F33
100
AcDbEntity
  8
Contraintes
100
AcDbLine
 10
364.9999999999999
 20
55.0
 30
0.0
 11
364.9999999999999
 21
50.0
 31
0.0
  0
LINE
  5
AAB
330
F33
100
AcDbEntity
  8
Decoupe
100
AcDbLine
 10
375.0
 20
75.0
 30
0.0
 11
371.9999999999999
 21
75.0
 31
0.0
  0
LINE
  5
AAC
330
F33
100
AcDbEntity
  8
Decoupe
100
AcDbLine
 10
371.9999999999999
 20
75.0
 30
0.0
 11
371.9999999999999
 21
65.0
 31
0.0
  0
LINE
  5
AAD
330
F33
100
AcDbEntity
  8
Decoupe
100
AcDbLine
 10
371.9999999999999
 20
65.0
 30
0.0
 11
375.0
 21
65.0
 31
0.0
  0
LINE
  5
AAE
330
F33
100
AcDbEntity
  8
Decoupe
100
AcDbLine
 10
375.0
 20
65.0
 30
0.0
 11
375.0
 21
75.0
 31
0.0
  0
LINE
  5
AAF
330
F33
100
AcDbEntity
  8
Contraintes
100
AcDbLine
 10
372.0
 20
85.0
 30
0.0
 11
371.9999999999999
 21
75.0
 31
0.0
  0
LINE
  5
AB0
330
F33
100
AcDbEntity
  8
Decoupe
100
AcDbLine
 10
375.0
 20
95.0
 30
0.0
 11
372.0
 21
95.0
 31
0.0
  0
LINE
  5
AB1
330
F33
100
AcDbEntity
  8
Decoupe
100
AcDbLine
 10
372.0
 20
95.0
 30
0.0
 11
372.0
 21
85.0
 31
0.0
  0
LINE
  5
AB2
330
F33
100
AcDbEntity
  8
Decoupe
100
AcDbLine
 10
372.0
 20
85.0
 30
0.0
 11
375.0
 21
85.0
 31
0.0
  0
LINE
  5
AB3
330
F33
100
AcDbEntity
  8
Decoupe
100
AcDbLine
 10
375.0
 20
85.0
 30
0.0
 11
375.0
 21
95.0
 31
0.0
  0
LINE
  5
AB4
330
F33
100
AcDbEntity
  8
Contraintes
100
AcDbLine
 10
372.0
 20
105.0
 30
0.0
 11
372.0
 21
95.0
 31
0.0
  0
LINE
  5
AB5
330
F33
100
AcDbEntity
  8
Decoupe
100
AcDbLine
 10
375.0
 20
115.0
 30
0.0
 11
372.0
 21
115.0
 31
0.0
  0
LINE
  5
AB6
330
F33
100
AcDbEntity
  8
Decoupe
100
AcDbLine
 10
372.0
 20
115.0
 30
0.0
 11
372.0
 21
105.0
 31
0.0
  0
LINE
  5
AB7
330
F33
100
AcDbEntity
  8
Decoupe
100
AcDbLine
 10
372.0
 20
105.0
 30
0.0
 11
375.0
 21
105.0
 31
0.0
  0
LINE
  5
AB8
330
F33
100
AcDbEntity
  8
Decoupe
100
AcDbLine
 10
375.0
 20
105.0
 30
0.0
 11
375.0
 21
115.0
 31
0.0
  0
LINE
  5
AB9
330
F33
100
AcDbEntity
  8
Contraintes
100
AcDbLine
 10
372.0
 20
125.0
 30
0.0
 11
372.0
 21
115.0
 31
0.0
  0
LINE
  5
ABA
330
F33
100
AcDbEntity
  8
Decoupe
100
AcDbLine
 10
375.0
 20
135.0
 30
0.0
 11
372.0
 21
135.0
 31
0.0
  0
LINE
  5
ABB
330
F33
100
AcDbEntity
  8
Decoupe
100
AcDbLine
 10
372.0
 20
135.0
 30
0.0
 11
372.0
 21
125.0
 31
0.0
  0
LINE
  5
ABC
330
F33
100
AcDbEntity
  8
Decoupe
100
AcDbLine
 10
372.0
 20
125.0
 30
0.0
 11
375.0
 21
125.0
 31
0.0
  0
LINE
  5
ABD
330
F33
100
AcDbEntity
  8
Decoupe
100
AcDbLine
 10
375.0
 20
125.0
 30
0.0
 11
375.0
 21
135.0
 31
0.0
  0
LINE
  5
ABE
330
F33
100
AcDbEntity
  8
Decoupe
100
AcDbLine
 10
305.0
 20
55.0
 30
0.0
 11
305.0
 21
58.0
 31
0.0
  0
LINE
  5
ABF
330
F33
100
AcDbEntity
  8
Decoupe
100
AcDbLine
 10
305.0
 20
58.0
 30
0.0
 11
295.0
 21
58.0
 31
0.0
  0
LINE
  5
AC0
330
F33
100
AcDbEntity
  8
Decoupe
100
AcDbLine
 10
295.0
 20
58.0
 30
0.0
 11
295.0
 21
55.0
 31
0.0
  0
LINE
  5
AC1
330
F33
100
AcDbEntity
  8
Decoupe
100
AcDbLine
 10
295.0
 20
55.0
 30
0.0
 11
305.0
 21
55.0
 31
0.0
  0
LINE
  5
AC2
330
F33
100
AcDbEntity
  8
Contraintes
100
AcDbLine
 10
315.0
 20
58.0
 30
0.0
 11
305.0
 21
58.0
 31
0.0
  0
LINE
  5
AC3
330
F33
100
AcDbEntity
  8
Decoupe
100
AcDbLine
 10
324.9999999999999
 20
55.0
 30
0.0
 11
325.0
 21
58.0
 31
0.0
  0
LINE
  5
AC4
330
F33
100
AcDbEntity
  8
Decoupe
100
AcDbLine
 10
325.0
 20
58.0
 30
0.0
 11
315.0
 21
58.0
 31
0.0
  0
LINE
  5
AC5
330
F33
100
AcDbEntity
  8
Decoupe
100
AcDbLine
 10
315.0
 20
58.0
 30
0.0
 11
315.0
 21
55.0
 31
0.0
  0
LINE
  5
AC6
330
F33
100
AcDbEntity
  8
Decoupe
100
AcDbLine
 10
315.0
 20
55.0
 30
0.0
 11
324.9999999999999
 21
55.0
 31
0.0
  0
LINE
  5
AC7
330
F33
100
AcDbEntity
  8
Contraintes
100
AcDbLine
 10
335.0
 20
58.0
 30
0.0
 11
325.0
 21
58.0
 31
0.0
  0
LINE
  5
AC8
330
F33
100
AcDbEntity
  8
Decoupe
100
AcDbLine
 10
345.0
 20
55.0
 30
0.0
 11
344.9999999999999
 21
58.0
 31
0.0
  0
LINE
  5
AC9
330
F33
100
AcDbEntity
  8
Decoupe
100
AcDbLine
 10
344.9999999999999
 20
58.0
 30
0.0
 11
335.0
 21
58.0
 31
0.0
  0
LINE
  5
ACA
330
F33
100
AcDbEntity
  8
Decoupe
100
AcDbLine
 10
335.0
 20
58.0
 30
0.0
 11
335.0
 21
55.0
 31
0.0
  0
LINE
  5
ACB
330
F33
100
AcDbEntity
  8
Decoupe
100
AcDbLine
 10
335.0
 20
55.0
 30
0.0
 11
345.0
 21
55.0
 31
0.0
  0
LINE
  5
ACC
330
F33
100
AcDbEntity
  8
Contraintes
100
AcDbLine
 10
355.0
 20
58.0
 30
0.0
 11
344.9999999999999
 21
58.0
 31
0.0
  0
LINE
  5
ACD
330
F33
100
AcDbEntity
  8
Decoupe
100
AcDbLine
 10
364.9999999999999
 20
55.0
 30
0.0
 11
365.0
 21
58.0
 31
0.0
  0
LINE
  5
ACE
330
F33
100
AcDbEntity
  8
Decoupe
100
AcDbLine
 10
365.0
 20
58.0
 30
0.0
 11
355.0
 21
58.0
 31
0.0
  0
LINE
  5
ACF
330
F33
100
AcDbEntity
  8
Decoupe
100
AcDbLine
 10
355.0
 20
58.0
 30
0.0
 11
355.0
 21
55.0
 31
0.0
  0
LINE
  5
AD0
330
F33
100
AcDbEntity
  8
Decoupe
100
AcDbLine
 10
355.0
 20
55.0
 30
0.0
 11
364.9999999999999
 21
55.0
 31
0.0
  0
LINE
  5
D58
330
F33
100
AcDbEntity
  8
Contour
100
AcDbLine
 10
380.0
 20
138.5
 30
0.0
 11
380.0
 21
135.0
 31
0.0
  0
LINE
  5
D57
330
F33
100
AcDbEntity
  8
Contour
100
AcDbLine
 10
380.0
 20
145.0
 30
0.0
 11
380.0
 21
141.5
 31
0.0
  0
LINE
  5
AD2
330
F33
100
AcDbEntity
  8
Contour
100
AcDbLine
 10
383.0
 20
145.0
 30
0.0
 11
380.0
 21
145.0
 31
0.0
  0
LINE
  5
AD3
330
F33
100
AcDbEntity
  8
Contour
100
AcDbLine
 10
383.0
 20
155.0
 30
0.0
 11
383.0
 21
145.0
 31
0.0
  0
LINE
  5
AD4
330
F33
100
AcDbEntity
  8
Contour
100
AcDbLine
 10
383.0
 20
155.0
 30
0.0
 11
380.0
 21
155.0
 31
0.0
  0
LINE
  5
AD5
330
F33
100
AcDbEntity
  8
Contour
100
AcDbLine
 10
380.0
 20
170.0
 30
0.0
 11
380.0
 21
155.0
 31
0.0
  0
LINE
  5
AD6
330
F33
100
AcDbEntity
  8
Contour
100
AcDbLine
 10
275.0
 20
47.0
 30
0.0
 11
275.0
 21
50.0
 31
0.0
  0
LINE
  5
AD7
330
F33
100
AcDbEntity
  8
Contour
100
AcDbLine
 10
285.0
 20
47.0
 30
0.0
 11
275.0
 21
47.0
 31
0.0
  0
LINE
  5
AD8
330
F33
100
AcDbEntity
  8
Contour
100
AcDbLine
 10
285.0
 20
47.0
 30
0.0
 11
285.0
 21
50.0
 31
0.0
  0
LINE
  5
D36
330
F33
100
AcDbEntity
  8
Contour
100
AcDbLine
 10
288.5
 20
50.0
 30
0.0
 11
285.0
 21
50.0
 31
0.0
  0
LINE
  5
D35
330
F33
100
AcDbEntity
  8
Contour
100
AcDbLine
 10
295.0
 20
50.0
 30
0.0
 11
291.5
 21
50.0
 31
0.0
  0
LINE
  5
ADA
330
F33
100
AcDbEntity
  8
Contour
100
AcDbLine
 10
275.0
 20
50.0
 30
0.0
 11
260.0
 21
50.0
 31
0.0
  0
LINE
  5
ADB
330
F33
100
AcDbEntity
  8
Decoupe
100
AcDbLine
 10
285.0
 20
55.0
 30
0.0
 11
285.0
 21
58.0
 31
0.0
  0
LINE
  5
ADC
330
F33
100
AcDbEntity
  8
Decoupe
100
AcDbLine
 10
285.0
 20
58.0
 30
0.0
 11
275.0
 21
58.0
 31
0.0
  0
LINE
  5
ADD
330
F33
100
AcDbEntity
  8
Decoupe
100
AcDbLine
 10
275.0
 20
58.0
 30
0.0
 11
274.9999999999999
 21
55.0
 31
0.0
  0
LINE
  5
ADE
330
F33
100
AcDbEntity
  8
Decoupe
100
AcDbLine
 10
274.9999999999999
 20
55.0
 30
0.0
 11
285.0
 21
55.0
 31
0.0
  0
LINE
  5
ADF
330
F33
100
AcDbEntity
  8
Contraintes
100
AcDbLine
 10
295.0
 20
58.0
 30
0.0
 11
285.0
 21
58.0
 31
0.0
  0
LINE
  5
AE0
330
F33
100
AcDbEntity
  8
Contraintes
100
AcDbLine
 10
372.0
 20
145.0
 30
0.0
 11
372.0
 21
135.0
 31
0.0
  0
LINE
  5
AE1
330
F33
100
AcDbEntity
  8
Decoupe
100
AcDbLine
 10
375.0
 20
155.0
 30
0.0
 11
372.0
 21
155.0
 31
0.0
  0
LINE
  5
AE2
330
F33
100
AcDbEntity
  8
Decoupe
100
AcDbLine
 10
372.0
 20
155.0
 30
0.0
 11
372.0
 21
145.0
 31
0.0
  0
LINE
  5
AE3
330
F33
100
AcDbEntity
  8
Decoupe
100
AcDbLine
 10
372.0
 20
145.0
 30
0.0
 11
375.0
 21
145.0
 31
0.0
  0
LINE
  5
AE4
330
F33
100
AcDbEntity
  8
Decoupe
100
AcDbLine
 10
375.0
 20
145.0
 30
0.0
 11
375.0
 21
155.0
 31
0.0
  0
CIRCLE
  5
AE5
330
F33
100
AcDbEntity
  8
Decoupe
100
AcDbCircle
 10
320.0
 20
110.0
 30
0.0
 40
20.25
  0
ARC
  5
AE9
330
F33
100
AcDbEntity
  8
Contour
100
AcDbCircle
 10
320.0
 20
200.0
 30
0.0
 40
3.0
100
AcDbArc
 50
0.0
 51
180.0
  0
LINE
  5
AEA
330
F33
100
AcDbEntity
  8
Contour
100
AcDbLine
 10
257.0
 20
200.0
 30
0.0
 11
317.0
 21
200.0
 31
0.0
  0
LINE
  5
AEB
330
F33
100
AcDbEntity
  8
Contour
100
AcDbLine
 10
323.0
 20
200.0
 30
0.0
 11
383.0
 21
200.0
 31
0.0
  0
LINE
  5
D39
330
F33
100
AcDbEntity
  8
Contour
100
AcDbLine
 10
275.0
 20
81.5
 30
0.0
 11
275.0
 21
82.75
 31
0.0
  0
LINE
  5
BD1
330
F33
100
AcDbEntity
  8
Contour
100
AcDbLine
 10
275.0
 20
141.5
 30
0.0
 11
275.0
 21
142.75
 31
0.0
  0
LINE
  5
D3A
330
F33
100
AcDbEntity
  8
Contour
100
AcDbLine
 10
275.0
 20
77.25
 30
0.0
 11
275.0
 21
78.5
 31
0.0
  0
LINE
  5
BD0
330
F33
100
AcDbEntity
  8
Contour
100
AcDbLine
 10
275.0
 20
137.25
 30
0.0
 11
275.0
 21
138.5
 31
0.0
  0
LINE
  5
D25
330
F33
100
AcDbEntity
  8
Contour
100
AcDbLine
 10
348.4999999999999
 20
65.0
 30
0.0
 11
347.2499999999999
 21
65.0
 31
0.0
  0
LINE
  5
BCF
330
F33
100
AcDbEntity
  8
Contour
100
AcDbLine
 10
288.5
 20
65.0
 30
0.0
 11
287.25
 21
65.0
 31
0.0
  0
LINE
  5
D26
330
F33
100
AcDbEntity
  8
Contour
100
AcDbLine
 10
352.7499999999999
 20
65.0
 30
0.0
 11
351.4999999999999
 21
65.0
 31
0.0
  0
LINE
  5
BCE
330
F33
100
AcDbEntity
  8
Contour
100
AcDbLine
 10
292.75
 20
65.0
 30
0.0
 11
291.5
 21
65.0
 31
0.0
  0
LINE
  5
D19
330
F33
100
AcDbEntity
  8
Contour
100
AcDbLine
 10
351.5
 20
155.0
 30
0.0
 11
352.75
 21
155.0
 31
0.0
  0
LINE
  5
D0D
330
F33
100
AcDbEntity
  8
Contour
100
AcDbLine
 10
291.5
 20
155.0
 30
0.0
 11
292.75
 21
155.0
 31
0.0
  0
LINE
  5
D49
330
F33
100
AcDbEntity
  8
Contour
100
AcDbLine
 10
365.0
 20
78.5
 30
0.0
 11
365.0
 21
77.25
 31
0.0
  0
LINE
  5
BCC
330
F33
100
AcDbEntity
  8
Contour
100
AcDbLine
 10
365.0
 20
138.5
 30
0.0
 11
365.0
 21
137.25
 31
0.0
  0
LINE
  5
D4A
330
F33
100
AcDbEntity
  8
Contour
100
AcDbLine
 10
365.0
 20
82.74999999999997
 30
0.0
 11
365.0
 21
81.5
 31
0.0
  0
LINE
  5
BCB
330
F33
100
AcDbEntity
  8
Contour
100
AcDbLine
 10
365.0
 20
142.75
 30
0.0
 11
365.0
 21
141.5
 31
0.0
  0
LINE
  5
D1A
330
F33
100
AcDbEntity
  8
Contour
100
AcDbLine
 10
347.25
 20
155.0
 30
0.0
 11
348.5
 21
155.0
 31
0.0
  0
LINE
  5
D0E
330
F33
100
AcDbEntity
  8
Contour
100
AcDbLine
 10
287.25
 20
155.0
 30
0.0
 11
288.5
 21
155.0
 31
0.0
  0
LINE
  5
D3B
330
F33
100
AcDbEntity
  8
Contour
100
AcDbLine
 10
275.0
 20
82.75
 30
0.0
 11
272.5
 21
82.75
 31
0.0
  0
LINE
  5
BD5
330
F33
100
AcDbEntity
  8
Contour
100
AcDbLine
 10
275.0
 20
142.75
 30
0.0
 11
272.5
 21
142.75
 31
0.0
  0
LINE
  5
D27
330
F33
100
AcDbEntity
  8
Contour
100
AcDbLine
 10
347.2499999999999
 20
65.0
 30
0.0
 11
347.2499999999999
 21
62.5
 31
0.0
  0
LINE
  5
BD4
330
F33
100
AcDbEntity
  8
Contour
100
AcDbLine
 10
287.25
 20
65.0
 30
0.0
 11
287.25
 21
62.5
 31
0.0
  0
LINE
  5
D4B
330
F33
100
AcDbEntity
  8
Contour
100
AcDbLine
 10
365.0
 20
77.25
 30
0.0
 11
367.5
 21
77.25
 31
0.0
  0
LINE
  5
BD3
330
F33
100
AcDbEntity
  8
Contour
100
AcDbLine
 10
365.0
 20
137.25
 30
0.0
 11
367.5
 21
137.25
 31
0.0
  0
LINE
  5
D1B
330
F33
100
AcDbEntity
  8
Contour
100
AcDbLine
 10
352.75
 20
155.0
 30
0.0
 11
352.75
 21
157.5
 31
0.0
  0
LINE
  5
D0F
330
F33
100
AcDbEntity
  8
Contour
100
AcDbLine
 10
292.75
 20
155.0
 30
0.0
 11
292.75
 21
157.5
 31
0.0
  0
LINE
  5
D28
330
F33
100
AcDbEntity
  8
Contour
100
AcDbLine
 10
351.4999999999999
 20
62.5
 30
0.0
 11
352.7499999999999
 21
62.5
 31
0.0
  0
LINE
  5
BDD
330
F33
100
AcDbEntity
  8
Contour
100
AcDbLine
 10
291.5
 20
62.5
 30
0.0
 11
292.75
 21
62.5
 31
0.0
  0
LINE
  5
D4C
330
F33
100
AcDbEntity
  8
Contour
100
AcDbLine
 10
367.5
 20
77.25
 30
0.0
 11
367.5
 21
78.5
 31
0.0
  0
LINE
  5
BDC
330
F33
100
AcDbEntity
  8
Contour
100
AcDbLine
 10
367.5
 20
137.25
 30
0.0
 11
367.5
 21
138.5
 31
0.0
  0
LINE
  5
D4D
330
F33
100
AcDbEntity
  8
Contour
100
AcDbLine
 10
367.5
 20
81.5
 30
0.0
 11
367.5
 21
82.74999999999997
 31
0.0
  0
LINE
  5
BDB
330
F33
100
AcDbEntity
  8
Contour
100
AcDbLine
 10
367.5
 20
141.5
 30
0.0
 11
367.5
 21
142.75
 31
0.0
  0
LINE
  5
D1C
330
F33
100
AcDbEntity
  8
Contour
100
AcDbLine
 10
348.5
 20
157.5
 30
0.0
 11
347.25
 21
157.5
 31
0.0
  0
LINE
  5
D10
330
F33
100
AcDbEntity
  8
Contour
100
AcDbLine
 10
288.5
 20
157.5
 30
0.0
 11
287.25
 21
157.5
 31
0.0
  0
LINE
  5
D1D
330
F33
100
AcDbEntity
  8
Contour
100
AcDbLine
 10
352.75
 20
157.5
 30
0.0
 11
351.5
 21
157.5
 31
0.0
  0
LINE
  5
D11
330
F33
100
AcDbEntity
  8
Contour
100
AcDbLine
 10
292.75
 20
157.5
 30
0.0
 11
291.5
 21
157.5
 31
0.0
  0
LINE
  5
D3C
330
F33
100
AcDbEntity
  8
Contour
100
AcDbLine
 10
272.5
 20
82.75
 30
0.0
 11
272.5
 21
81.5
 31
0.0
  0
LINE
  5
BD8
330
F33
100
AcDbEntity
  8
Contour
100
AcDbLine
 10
272.5
 20
142.75
 30
0.0
 11
272.5
 21
141.5
 31
0.0
  0
LINE
  5
D3D
330
F33
100
AcDbEntity
  8
Contour
100
AcDbLine
 10
272.5
 20
78.5
 30
0.0
 11
272.5
 21
77.25
 31
0.0
  0
LINE
  5
BD7
330
F33
100
AcDbEntity
  8
Contour
100
AcDbLine
 10
272.5
 20
138.5
 30
0.0
 11
272.5
 21
137.25
 31
0.0
  0
LINE
  5
D29
330
F33
100
AcDbEntity
  8
Contour
100
AcDbLine
 10
347.2499999999999
 20
62.5
 30
0.0
 11
348.4999999999999
 21
62.5
 31
0.0
  0
LINE
  5
BD6
330
F33
100
AcDbEntity
  8
Contour
100
AcDbLine
 10
287.25
 20
62.5
 30
0.0
 11
288.5
 21
62.5
 31
0.0
  0
LINE
  5
D2A
330
F33
100
AcDbEntity
  8
Contour
100
AcDbLine
 10
352.7499999999999
 20
62.5
 30
0.0
 11
352.7499999999999
 21
65.0
 31
0.0
  0
LINE
  5
BE1
330
F33
100
AcDbEntity
  8
Contour
100
AcDbLine
 10
292.75
 20
62.5
 30
0.0
 11
292.75
 21
65.0
 31
0.0
  0
LINE
  5
D4E
330
F33
100
AcDbEntity
  8
Contour
100
AcDbLine
 10
367.5
 20
82.74999999999997
 30
0.0
 11
365.0
 21
82.74999999999997
 31
0.0
  0
LINE
  5
BE0
330
F33
100
AcDbEntity
  8
Contour
100
AcDbLine
 10
367.5
 20
142.75
 30
0.0
 11
365.0
 21
142.75
 31
0.0
  0
LINE
  5
D3E
330
F33
100
AcDbEntity
  8
Contour
100
AcDbLine
 10
272.5
 20
77.25
 30
0.0
 11
275.0
 21
77.25
 31
0.0
  0
LINE
  5
BDF
330
F33
100
AcDbEntity
  8
Contour
100
AcDbLine
 10
272.5
 20
137.25
 30
0.0
 11
275.0
 21
137.25
 31
0.0
  0
LINE
  5
D1E
330
F33
100
AcDbEntity
  8
Contour
100
AcDbLine
 10
347.25
 20
157.5
 30
0.0
 11
347.25
 21
155.0
 31
0.0
  0
LINE
  5
D12
330
F33
100
AcDbEntity
  8
Contour
100
AcDbLine
 10
287.25
 20
157.5
 30
0.0
 11
287.25
 21
155.0
 31
0.0
  0
LINE
  5
D1F
330
F33
100
AcDbEntity
  8
Contour
100
AcDbLine
 10
348.5
 20
151.0
 30
0.0
 11
351.5
 21
151.0
 31
0.0
  0
LINE
  5
D13
330
F33
100
AcDbEntity
  8
Contour
100
AcDbLine
 10
288.5
 20
151.0
 30
0.0
 11
291.5
 21
151.0
 31
0.0
  0
LINE
  5
D2B
330
F33
100
AcDbEntity
  8
Contour
100
AcDbLine
 10
351.4999999999999
 20
69.0
 30
0.0
 11
348.4999999999999
 21
69.0
 31
0.0
  0
LINE
  5
BE4
330
F33
100
AcDbEntity
  8
Contour
100
AcDbLine
 10
291.5
 20
69.0
 30
0.0
 11
288.5
 21
69.0
 31
0.0
  0
LINE
  5
D4F
330
F33
100
AcDbEntity
  8
Contour
100
AcDbLine
 10
361.0
 20
81.5
 30
0.0
 11
361.0
 21
78.5
 31
0.0
  0
LINE
  5
BE3
330
F33
100
AcDbEntity
  8
Contour
100
AcDbLine
 10
361.0
 20
141.5
 30
0.0
 11
361.0
 21
138.5
 31
0.0
  0
LINE
  5
D3F
330
F33
100
AcDbEntity
  8
Contour
100
AcDbLine
 10
279.0
 20
78.5
 30
0.0
 11
279.0
 21
81.5
 31
0.0
  0
LINE
  5
BE2
330
F33
100
AcDbEntity
  8
Contour
100
AcDbLine
 10
279.0
 20
138.5
 30
0.0
 11
279.0
 21
141.5
 31
0.0
  0
LINE
  5
D2C
330
F33
100
AcDbEntity
  8
Contour
100
AcDbLine
 10
348.4999999999999
 20
69.0
 30
0.0
 11
348.4999999999999
 21
65.0
 31
0.0
  0
LINE
  5
BED
330
F33
100
AcDbEntity
  8
Contour
100
AcDbLine
 10
288.5
 20
69.0
 30
0.0
 11
288.5
 21
65.0
 31
0.0
  0
LINE
  5
D2D
330
F33
100
AcDbEntity
  8
Contour
100
AcDbLine
 10
348.4999999999999
 20
62.5
 30
0.0
 11
348.4999999999999
 21
50.0
 31
0.0
  0
LINE
  5
BEC
330
F33
100
AcDbEntity
  8
Contour
100
AcDbLine
 10
288.5
 20
62.5
 30
0.0
 11
288.5
 21
50.0
 31
0.0
  0
LINE
  5
D50
330
F33
100
AcDbEntity
  8
Contour
100
AcDbLine
 10
361.0
 20
78.5
 30
0.0
 11
365.0
 21
78.5
 31
0.0
  0
LINE
  5
BEB
330
F33
100
AcDbEntity
  8
Contour
100
AcDbLine
 10
361.0
 20
138.5
 30
0.0
 11
365.0
 21
138.5
 31
0.0
  0
LINE
  5
D51
330
F33
100
AcDbEntity
  8
Contour
100
AcDbLine
 10
367.5
 20
78.5
 30
0.0
 11
380.0
 21
78.5
 31
0.0
  0
LINE
  5
BEA
330
F33
100
AcDbEntity
  8
Contour
100
AcDbLine
 10
367.5
 20
138.5
 30
0.0
 11
380.0
 21
138.5
 31
0.0
  0
LINE
  5
D20
330
F33
100
AcDbEntity
  8
Contour
100
AcDbLine
 10
351.5
 20
157.5
 30
0.0
 11
351.5
 21
170.0
 31
0.0
  0
LINE
  5
D14
330
F33
100
AcDbEntity
  8
Contour
100
AcDbLine
 10
291.5
 20
157.5
 30
0.0
 11
291.5
 21
170.0
 31
0.0
  0
LINE
  5
D21
330
F33
100
AcDbEntity
  8
Contour
100
AcDbLine
 10
351.5
 20
151.0
 30
0.0
 11
351.5
 21
155.0
 31
0.0
  0
LINE
  5
D15
330
F33
100
AcDbEntity
  8
Contour
100
AcDbLine
 10
291.5
 20
151.0
 30
0.0
 11
291.5
 21
155.0
 31
0.0
  0
LINE
  5
D40
330
F33
100
AcDbEntity
  8
Contour
100
AcDbLine
 10
279.0
 20
81.5
 30
0.0
 11
275.0
 21
81.5
 31
0.0
  0
LINE
  5
BE7
330
F33
100
AcDbEntity
  8
Contour
100
AcDbLine
 10
279.0
 20
141.5
 30
0.0
 11
275.0
 21
141.5
 31
0.0
  0
LINE
  5
D41
330
F33
100
AcDbEntity
  8
Contour
100
AcDbLine
 10
272.5
 20
81.5
 30
0.0
 11
260.0
 21
81.5
 31
0.0
  0
LINE
  5
BE6
330
F33
100
AcDbEntity
  8
Contour
100
AcDbLine
 10
272.5
 20
141.5
 30
0.0
 11
260.0
 21
141.5
 31
0.0
  0
LINE
  5
D2E
330
F33
100
AcDbEntity
  8
Contour
100
AcDbLine
 10
351.4999999999999
 20
50.0
 30
0.0
 11
351.4999999999999
 21
62.5
 31
0.0
  0
LINE
  5
BF5
330
F33
100
AcDbEntity
  8
Contour
100
AcDbLine
 10
291.5
 20
50.0
 30
0.0
 11
291.5
 21
62.5
 31
0.0
  0
LINE
  5
D2F
330
F33
100
AcDbEntity
  8
Contour
100
AcDbLine
 10
351.4999999999999
 20
65.0
 30
0.0
 11
351.4999999999999
 21
69.0
 31
0.0
  0
LINE
  5
BF4
330
F33
100
AcDbEntity
  8
Contour
100
AcDbLine
 10
291.5
 20
65.0
 30
0.0
 11
291.5
 21
69.0
 31
0.0
  0
LINE
  5
D52
330
F33
100
AcDbEntity
  8
Contour
100
AcDbLine
 10
380.0
 20
81.5
 30
0.0
 11
367.5
 21
81.5
 31
0.0
  0
LINE
  5
BF3
330
F33
100
AcDbEntity
  8
Contour
100
AcDbLine
 10
380.0
 20
141.5
 30
0.0
 11
367.5
 21
141.5
 31
0.0
  0
LINE
  5
D53
330
F33
100
AcDbEntity
  8
Contour
100
AcDbLine
 10
365.0
 20
81.5
 30
0.0
 11
361.0
 21
81.5
 31
0.0
  0
LINE
  5
BF2
330
F33
100
AcDbEntity
  8
Contour
100
AcDbLine
 10
365.0
 20
141.5
 30
0.0
 11
361.0
 21
141.5
 31
0.0
  0
LINE
  5
D42
330
F33
100
AcDbEntity
  8
Contour
100
AcDbLine
 10
260.0
 20
78.5
 30
0.0
 11
272.5
 21
78.5
 31
0.0
  0
LINE
  5
BF1
330
F33
100
AcDbEntity
  8
Contour
100
AcDbLine
 10
260.0
 20
138.5
 30
0.0
 11
272.5
 21
138.5
 31
0.0
  0
LINE
  5
D43
330
F33
100
AcDbEntity
  8
Contour
100
AcDbLine
 10
275.0
 20
78.5
 30
0.0
 11
279.0
 21
78.5
 31
0.0
  0
LINE
  5
BF0
330
F33
100
AcDbEntity
  8
Contour
100
AcDbLine
 10
275.0
 20
138.5
 30
0.0
 11
279.0
 21
138.5
 31
0.0
  0
LINE
  5
D22
330
F33
100
AcDbEntity
  8
Contour
100
AcDbLine
 10
348.5
 20
155.0
 30
0.0
 11
348.5
 21
151.0
 31
0.0
  0
LINE
  5
D16
330
F33
100
AcDbEntity
  8
Contour
100
AcDbLine
 10
288.5
 20
155.0
 30
0.0
 11
288.5
 21
151.0
 31
0.0
  0
LINE
  5
D23
330
F33
100
AcDbEntity
  8
Contour
100
AcDbLine
 10
348.5
 20
170.0
 30
0.0
 11
348.5
 21
157.5
 31
0.0
  0
LINE
  5
D17
330
F33
100
AcDbEntity
  8
Contour
100
AcDbLine
 10
288.5
 20
170.0
 30
0.0
 11
288.5
 21
157.5
 31
0.0
  0
LINE
  5
D30
330
F33
100
AcDbEntity
  8
Contraintes
100
AcDbLine
 10
349.9999999999999
 20
69.0
 30
0.0
 11
349.9999999999999
 21
65.0
 31
0.0
  0
LINE
  5
BF8
330
F33
100
AcDbEntity
  8
Contraintes
100
AcDbLine
 10
290.0
 20
69.0
 30
0.0
 11
290.0
 21
65.0
 31
0.0
  0
LINE
  5
D54
330
F33
100
AcDbEntity
  8
Contraintes
100
AcDbLine
 10
361.0
 20
80.0
 30
0.0
 11
365.0
 21
80.0
 31
0.0
  0
LINE
  5
BF7
330
F33
100
AcDbEntity
  8
Contraintes
100
AcDbLine
 10
361.0
 20
140.0
 30
0.0
 11
365.0
 21
140.0
 31
0.0
  0
LINE
  5
D44
330
F33
100
AcDbEntity
  8
Contraintes
100
AcDbLine
 10
279.0
 20
80.0
 30
0.0
 11
275.0
 21
80.0
 31
0.0
  0
LINE
  5
BF6
330
F33
100
AcDbEntity
  8
Contraintes
100
AcDbLine
 10
279.0
 20
140.0
 30
0.0
 11
275.0
 21
140.0
 31
0.0
  0
LINE
  5
D24
330
F33
100
AcDbEntity
  8
Contraintes
100
AcDbLine
 10
350.0
 20
151.0
 30
0.0
 11
350.0
 21
155.0
 31
0.0
  0
LINE
  5
D18
330
F33
100
AcDbEntity
  8
Contraintes
100
AcDbLine
 10
290.0
 20
151.0
 30
0.0
 11
290.0
 21
155.0
 31
0.0
  0
CIRCLE
  5
D0C
330
F33
100
AcDbEntity
  8
Visserie
100
AcDbCircle
 10
350.0
 20
266.5
 30
0.0
 40
1.5
  0
CIRCLE
  5
D0B
330
F33
100
AcDbEntity
  8
Visserie
100
AcDbCircle
 10
163.5
 20
80.0
 30
0.0
 40
1.5
  0
CIRCLE
  5
D0A
330
F33
100
AcDbEntity
  8
Visserie
100
AcDbCircle
 10
163.5
 20
140.0
 30
0.0
 40
1.5
  0
CIRCLE
  5
D09
330
F33
100
AcDbEntity
  8
Visserie
100
AcDbCircle
 10
290.0
 20
266.5
 30
0.0
 40
1.5
  0
ENDSEC
  0
SECTION
  2
OBJECTS
  0
DICTIONARY
  5
F21
330
0
100
AcDbDictionary
281
     1
  3
ACAD_DETAILVIEWSTYLE
350
FFB
  3
ACAD_GROUP
350
F22
  3
ACAD_LAYOUT
350
F2E
  3
ACAD_MATERIAL
350
F57
  3
ACAD_MLEADERSTYLE
350
F7F
  3
ACAD_MLINESTYLE
350
F2B
  3
ACAD_PLOTSETTINGS
350
F2D
  3
ACAD_PLOTSTYLENAME
350
F23
  3
ACAD_SCALELIST
350
F5B
  3
ACAD_SECTIONVIEWSTYLE
350
FFC
  3
ACAD_TABLESTYLE
350
F7D
  3
ACAD_VISUALSTYLE
350
F3E
  3
AcDbVariableDictionary
350
FF4
  3
ACDB_RECOMPOSE_DATA
350
FF8
  3
QCAD_OBJECTS
350
F83
  0
SUN
  5
F81
330
F3D
100
AcDbSun
 90
        1
290
     0
 63
     7
421
 16777215
 40
1.0
291
     1
 91
  2455826
 92
 54000000
292
     0
 70
     2
 71
   256
280
     1
  0
DICTIONARY
  5
FFB
102
{ACAD_REACTORS
330
F21
102
}
330
F21
100
AcDbDictionary
281
     1
  0
DICTIONARY
  5
F22
102
{ACAD_REACTORS
330
F21
102
}
330
F21
100
AcDbDictionary
281
     1
  0
DICTIONARY
  5
F2E
102
{ACAD_REACTORS
330
F21
102
}
330
F21
100
AcDbDictionary
281
     1
  3
Layout1
350
F32
  3
Layout2
350
F3A
  3
Model
350
F36
  0
DICTIONARY
  5
F57
102
{ACAD_REACTORS
330
F21
102
}
330
F21
100
AcDbDictionary
281
     1
  3
ByBlock
350
F59
  3
ByLayer
350
F58
  3
Global
350
F5A
  0
DICTIONARY
  5
F7F
102
{ACAD_REACTORS
330
F21
102
}
330
F21
100
AcDbDictionary
281
     1
  3
Standard
350
F80
  0
DICTIONARY
  5
F2B
102
{ACAD_REACTORS
330
F21
102
}
330
F21
100
AcDbDictionary
281
     1
  3
Standard
350
F2C
  0
DICTIONARY
  5
F2D
102
{ACAD_REACTORS
330
F21
102
}
330
F21
100
AcDbDictionary
281
     1
  0
ACDBDICTIONARYWDFLT
  5
F23
102
{ACAD_REACTORS
330
F21
102
}
330
F21
100
AcDbDictionary
281
     1
  3
Normal
350
F24
100
AcDbDictionaryWithDefault
340
F24
  0
DICTIONARY
  5
F5B
102
{ACAD_REACTORS
330
F21
102
}
330
F21
100
AcDbDictionary
281
     1
  3
A0
350
F5C
  3
A1
350
F5D
  3
A2
350
F5E
  3
A3
350
F5F
  3
A4
350
F60
  3
A5
350
F61
  3
A6
350
F62
  3
A7
350
F63
  3
A8
350
F64
  3
A9
350
F65
  3
B0
350
F66
  3
B1
350
F67
  3
B2
350
F68
  3
B3
350
F69
  3
B4
350
F6A
  3
B5
350
F6B
  3
B6
350
F6C
  3
B7
350
F6D
  3
B8
350
F6E
  3
B9
350
F6F
  3
C0
350
F70
  3
C1
350
F71
  3
C2
350
F72
  3
C3
350
F73
  3
C4
350
F74
  3
C5
350
F75
  3
C6
350
F76
  3
C7
350
F77
  3
C8
350
F78
  3
C9
350
F79
  3
D0
350
F7A
  3
D1
350
F7B
  3
D2
350
F7C
  0
DICTIONARY
  5
FFC
102
{ACAD_REACTORS
330
F21
102
}
330
F21
100
AcDbDictionary
281
     1
  0
DICTIONARY
  5
F7D
102
{ACAD_REACTORS
330
F21
102
}
330
F21
100
AcDbDictionary
281
     1
  3
Standard
350
F7E
  0
DICTIONARY
  5
F3E
102
{ACAD_REACTORS
330
F21
102
}
330
F21
100
AcDbDictionary
281
     1
  3
2dWireframe
350
F43
  3
Basic
350
F46
  3
Brighten
350
F4A
  3
ColorChange
350
F4E
  3
Conceptual
350
F48
  3
Dim
350
F49
  3
EdgeColorOff
350
F51
  3
Facepattern
350
F4D
  3
Flat
350
F3F
  3
FlatWithEdges
350
F40
  3
Gouraud
350
F41
  3
GouraudWithEdges
350
F42
  3
Hidden
350
F45
  3
JitterOff
350
F4F
  3
Linepattern
350
F4C
  3
OverhangOff
350
F50
  3
Realistic
350
F47
  3
Shaded
350
F56
  3
Shaded with edges
350
F55
  3
Shades of Gray
350
F52
  3
Sketchy
350
F53
  3
Thicken
350
F4B
  3
Wireframe
350
F44
  3
X-Ray
350
F54
  0
DICTIONARY
  5
FF4
102
{ACAD_REACTORS
330
F21
102
}
330
F21
100
AcDbDictionary
281
     1
  3
CANNOSCALE
350
FF5
  3
CMLEADERSTYLE
350
FFA
  3
CTABLESTYLE
350
FF9
  0
XRECORD
  5
FF8
102
{ACAD_REACTORS
330
F21
102
}
330
F21
100
AcDbXrecord
280
     1
 90
        1
330
F7E
  0
DICTIONARY
  5
F83
102
{ACAD_REACTORS
330
F21
102
}
330
F21
100
AcDbDictionary
281
     1
  3
ColorSettings/BackgroundColor
350
F85
  3
ColorSettings/ColorMode
350
F86
  3
Grid/DisplayGrid00
350
F87
  3
Grid/DisplayGrid01
350
F88
  3
Grid/DisplayGrid02
350
F89
  3
Grid/DisplayGrid03
350
F8A
  3
Grid/GridSpacingX00
350
F8B
  3
Grid/GridSpacingX01
350
F8C
  3
Grid/GridSpacingX02
350
F8D
  3
Grid/GridSpacingX03
350
F8E
  3
Grid/GridSpacingY00
350
F8F
  3
Grid/GridSpacingY01
350
F90
  3
Grid/GridSpacingY02
350
F91
  3
Grid/GridSpacingY03
350
F92
  3
Grid/IsometricGrid00
350
F93
  3
Grid/IsometricGrid01
350
F94
  3
Grid/IsometricGrid02
350
F95
  3
Grid/IsometricGrid03
350
F96
  3
Grid/IsometricProjection00
350
F97
  3
Grid/IsometricProjection01
350
F98
  3
Grid/IsometricProjection02
350
F99
  3
Grid/IsometricProjection03
350
F9A
  3
Grid/MetaGridSpacingX00
350
F9B
  3
Grid/MetaGridSpacingX01
350
F9C
  3
Grid/MetaGridSpacingX02
350
F9D
  3
Grid/MetaGridSpacingX03
350
F9E
  3
Grid/MetaGridSpacingY00
350
F9F
  3
Grid/MetaGridSpacingY01
350
FA0
  3
Grid/MetaGridSpacingY02
350
FA1
  3
Grid/MetaGridSpacingY03
350
FA2
  3
MultiPageSettings/Columns
350
FA3
  3
MultiPageSettings/GlueMarginsBottom
350
FA4
  3
MultiPageSettings/GlueMarginsLeft
350
FA5
  3
MultiPageSettings/GlueMarginsRight
350
FA6
  3
MultiPageSettings/GlueMarginsTop
350
FA7
  3
MultiPageSettings/PrintCropMarks
350
FA8
  3
MultiPageSettings/Rows
350
FA9
  3
PageSettings/OffsetX
350
FAA
  3
PageSettings/OffsetY
350
FAB
  3
PageSettings/PageOrientation
350
FAC
  3
PageSettings/PaperHeight
350
FAD
  3
PageSettings/PaperWidth
350
FAE
  3
PageSettings/Scale
350
FAF
  3
PageSettings/ShowPaperBorders
350
FB0
  3
QCADVersion
350
FB1
  3
UnitSettings/PaperUnit
350
FB2
  0
LAYOUT
  5
F32
102
{ACAD_REACTORS
330
F2E
102
}
330
F2E
100
AcDbPlotSettings
  1

  2
none_device
  4

  6

 40
0.0
 41
0.0
 42
0.0
 43
0.0
 44
0.0
 45
0.0
 46
0.0
 47
0.0
 48
0.0
 49
0.0
140
0.0
141
0.0
142
1.0
143
1.0
 70
   688
 72
     0
 73
     0
 74
     5
  7

 75
    16
 76
     0
 77
     2
 78
   300
147
1.0
148
0.0
149
0.0
100
AcDbLayout
  1
Layout1
 70
     1
 71
     1
 10
0.0
 20
0.0
 11
12.0
 21
9.0
 12
0.0
 22
0.0
 32
0.0
 14
1.000000000000000E+20
 24
1.000000000000000E+20
 34
1.000000000000000E+20
 15
-1.000000000000000E+20
 25
-1.000000000000000E+20
 35
-1.000000000000000E+20
146
0.0
 13
0.0
 23
0.0
 33
0.0
 16
1.0
 26
0.0
 36
0.0
 17
0.0
 27
1.0
 37
0.0
 76
     0
330
F2F
  0
LAYOUT
  5
F3A
102
{ACAD_REACTORS
330
F2E
102
}
330
F2E
100
AcDbPlotSettings
  1

  2
none_device
  4

  6

 40
0.0
 41
0.0
 42
0.0
 43
0.0
 44
0.0
 45
0.0
 46
0.0
 47
0.0
 48
0.0
 49
0.0
140
0.0
141
0.0
142
1.0
143
1.0
 70
   688
 72
     0
 73
     0
 74
     5
  7

 75
    16
 76
     0
 77
     2
 78
   300
147
1.0
148
0.0
149
0.0
100
AcDbLayout
  1
Layout2
 70
     1
 71
     2
 10
0.0
 20
0.0
 11
0.0
 21
0.0
 12
0.0
 22
0.0
 32
0.0
 14
0.0
 24
0.0
 34
0.0
 15
0.0
 25
0.0
 35
0.0
146
0.0
 13
0.0
 23
0.0
 33
0.0
 16
1.0
 26
0.0
 36
0.0
 17
0.0
 27
1.0
 37
0.0
 76
     0
330
F37
  0
LAYOUT
  5
F36
102
{ACAD_REACTORS
330
F2E
102
}
330
F2E
100
AcDbPlotSettings
  1

  2
none_device
  4
Letter_(8.50_x_11.00_Inches)
  6

 40
6.35
 41
6.35
 42
6.35000508
 43
6.35000508
 44
215.9
 45
279.4
 46
0.0
 47
0.0
 48
0.0
 49
0.0
140
0.0
141
0.0
142
1.0
143
1.0
 70
  1712
 72
     0
 73
     0
 74
     0
  7

 75
     0
 76
     0
 77
     2
 78
   300
147
1.0
148
0.0
149
0.0
100
AcDbLayout
  1
Model
 70
     1
 71
     0
 10
0.0
 20
0.0
 11
12.0
 21
9.0
 12
0.0
 22
0.0
 32
0.0
 14
1.000000000000000E+20
 24
1.000000000000000E+20
 34
1.000000000000000E+20
 15
-1.000000000000000E+20
 25
-1.000000000000000E+20
 35
-1.000000000000000E+20
146
0.0
 13
0.0
 23
0.0
 33
0.0
 16
1.0
 26
0.0
 36
0.0
 17
0.0
 27
1.0
 37
0.0
 76
     0
330
F33
331
F3D
  0
MATERIAL
  5
F59
102
{ACAD_REACTORS
330
F57
102
}
330
F57
100
AcDbMaterial
  1
ByBlock
 72
     1
 94
      127
  0
MATERIAL
  5
F58
102
{ACAD_REACTORS
330
F57
102
}
330
F57
100
AcDbMaterial
  1
ByLayer
 72
     1
 94
      127
  0
MATERIAL
  5
F5A
102
{ACAD_REACTORS
330
F57
102
}
330
F57
100
AcDbMaterial
  1
Global
 72
     1
 94
      127
  0
MLEADERSTYLE
  5
F80
102
{ACAD_REACTORS
330
F7F
102
}
330
F7F
100
AcDbMLeaderStyle
179
     2
170
     2
171
     1
172
     0
 90
        2
 40
0.0
 41
0.0
173
     1
 91
-1056964608
340
F28
 92
       -2
290
     1
 42
0.09
291
     1
 43
0.36
  3
Standard
341
0
 44
0.18
300

342
F26
174
     1
178
     6
175
     1
176
     0
 93
-1056964608
 45
0.18
292
     0
297
     0
 46
0.18
343
0
 94
-1056964608
 47
1.0
 49
1.0
140
1.0
293
     1
141
0.0
294
     1
177
     0
142
1.0
295
     0
296
     0
143
0.125
271
     0
272
     9
273
     9
298
     0
  0
MLINESTYLE
  5
F2C
102
{ACAD_REACTORS
330
F2B
102
}
330
F2B
100
AcDbMlineStyle
  2
Standard
 70
     0
  3

 62
   256
 51
90.0
 52
90.0
 71
     2
 49
0.5
 62
   256
  6
BYLAYER
 49
-0.5
 62
   256
  6
BYLAYER
  0
ACDBPLACEHOLDER
  5
F24
102
{ACAD_REACTORS
330
F23
102
}
330
F23
  0
SCALE
  5
F5C
102
{ACAD_REACTORS
330
F5B
102
}
330
F5B
100
AcDbScale
 70
     0
300
1:1
140
1.0
141
1.0
290
     1
  0
SCALE
  5
F5D
102
{ACAD_REACTORS
330
F5B
102
}
330
F5B
100
AcDbScale
 70
     0
300
1:2
140
1.0
141
2.0
290
     0
  0
SCALE
  5
F5E
102
{ACAD_REACTORS
330
F5B
102
}
330
F5B
100
AcDbScale
 70
     0
300
1:4
140
1.0
141
4.0
290
     0
  0
SCALE
  5
F5F
102
{ACAD_REACTORS
330
F5B
102
}
330
F5B
100
AcDbScale
 70
     0
300
1:5
140
1.0
141
5.0
290
     0
  0
SCALE
  5
F60
102
{ACAD_REACTORS
330
F5B
102
}
330
F5B
100
AcDbScale
 70
     0
300
1:8
140
1.0
141
8.0
290
     0
  0
SCALE
  5
F61
102
{ACAD_REACTORS
330
F5B
102
}
330
F5B
100
AcDbScale
 70
     0
300
1:10
140
1.0
141
10.0
290
     0
  0
SCALE
  5
F62
102
{ACAD_REACTORS
330
F5B
102
}
330
F5B
100
AcDbScale
 70
     0
300
1:16
140
1.0
141
16.0
290
     0
  0
SCALE
  5
F63
102
{ACAD_REACTORS
330
F5B
102
}
330
F5B
100
AcDbScale
 70
     0
300
1:20
140
1.0
141
20.0
290
     0
  0
SCALE
  5
F64
102
{ACAD_REACTORS
330
F5B
102
}
330
F5B
100
AcDbScale
 70
     0
300
1:30
140
1.0
141
30.0
290
     0
  0
SCALE
  5
F65
102
{ACAD_REACTORS
330
F5B
102
}
330
F5B
100
AcDbScale
 70
     0
300
1:40
140
1.0
141
40.0
290
     0
  0
SCALE
  5
F66
102
{ACAD_REACTORS
330
F5B
102
}
330
F5B
100
AcDbScale
 70
     0
300
1:50
140
1.0
141
50.0
290
     0
  0
SCALE
  5
F67
102
{ACAD_REACTORS
330
F5B
102
}
330
F5B
100
AcDbScale
 70
     0
300
1:100
140
1.0
141
100.0
290
     0
  0
SCALE
  5
F68
102
{ACAD_REACTORS
330
F5B
102
}
330
F5B
100
AcDbScale
 70
     0
300
2:1
140
2.0
141
1.0
290
     0
  0
SCALE
  5
F69
102
{ACAD_REACTORS
330
F5B
102
}
330
F5B
100
AcDbScale
 70
     0
300
4:1
140
4.0
141
1.0
290
     0
  0
SCALE
  5
F6A
102
{ACAD_REACTORS
330
F5B
102
}
330
F5B
100
AcDbScale
 70
     0
300
8:1
140
8.0
141
1.0
290
     0
  0
SCALE
  5
F6B
102
{ACAD_REACTORS
330
F5B
102
}
330
F5B
100
AcDbScale
 70
     0
300
10:1
140
10.0
141
1.0
290
     0
  0
SCALE
  5
F6C
102
{ACAD_REACTORS
330
F5B
102
}
330
F5B
100
AcDbScale
 70
     0
300
100:1
140
100.0
141
1.0
290
     0
  0
SCALE
  5
F6D
102
{ACAD_REACTORS
330
F5B
102
}
330
F5B
100
AcDbScale
 70
     0
300
1/128" = 1'-0"
140
0.0078125
141
12.0
290
     0
  0
SCALE
  5
F6E
102
{ACAD_REACTORS
330
F5B
102
}
330
F5B
100
AcDbScale
 70
     0
300
1/64" = 1'-0"
140
0.015625
141
12.0
290
     0
  0
SCALE
  5
F6F
102
{ACAD_REACTORS
330
F5B
102
}
330
F5B
100
AcDbScale
 70
     0
300
1/32" = 1'-0"
140
0.03125
141
12.0
290
     0
  0
SCALE
  5
F70
102
{ACAD_REACTORS
330
F5B
102
}
330
F5B
100
AcDbScale
 70
     0
300
1/16" = 1'-0"
140
0.0625
141
12.0
290
     0
  0
SCALE
  5
F71
102
{ACAD_REACTORS
330
F5B
102
}
330
F5B
100
AcDbScale
 70
     0
300
3/32" = 1'-0"
140
0.09375
141
12.0
290
     0
  0
SCALE
  5
F72
102
{ACAD_REACTORS
330
F5B
102
}
330
F5B
100
AcDbScale
 70
     0
300
1/8" = 1'-0"
140
0.125
141
12.0
290
     0
  0
SCALE
  5
F73
102
{ACAD_REACTORS
330
F5B
102
}
330
F5B
100
AcDbScale
 70
     0
300
3/16" = 1'-0"
140
0.1875
141
12.0
290
     0
  0
SCALE
  5
F74
102
{ACAD_REACTORS
330
F5B
102
}
330
F5B
100
AcDbScale
 70
     0
300
1/4" = 1'-0"
140
0.25
141
12.0
290
     0
  0
SCALE
  5
F75
102
{ACAD_REACTORS
330
F5B
102
}
330
F5B
100
AcDbScale
 70
     0
300
3/8" = 1'-0"
140
0.375
141
12.0
290
     0
  0
SCALE
  5
F76
102
{ACAD_REACTORS
330
F5B
102
}
330
F5B
100
AcDbScale
 70
     0
300
1/2" = 1'-0"
140
0.5
141
12.0
290
     0
  0
SCALE
  5
F77
102
{ACAD_REACTORS
330
F5B
102
}
330
F5B
100
AcDbScale
 70
     0
300
3/4" = 1'-0"
140
0.75
141
12.0
290
     0
  0
SCALE
  5
F78
102
{ACAD_REACTORS
330
F5B
102
}
330
F5B
100
AcDbScale
 70
     0
300
1" = 1'-0"
140
1.0
141
12.0
290
     0
  0
SCALE
  5
F79
102
{ACAD_REACTORS
330
F5B
102
}
330
F5B
100
AcDbScale
 70
     0
300
1-1/2" = 1'-0"
140
1.5
141
12.0
290
     0
  0
SCALE
  5
F7A
102
{ACAD_REACTORS
330
F5B
102
}
330
F5B
100
AcDbScale
 70
     0
300
3" = 1'-0"
140
3.0
141
12.0
290
     0
  0
SCALE
  5
F7B
102
{ACAD_REACTORS
330
F5B
102
}
330
F5B
100
AcDbScale
 70
     0
300
6" = 1'-0"
140
6.0
141
12.0
290
     0
  0
SCALE
  5
F7C
102
{ACAD_REACTORS
330
F5B
102
}
330
F5B
100
AcDbScale
 70
     0
300
1'-0" = 1'-0"
140
12.0
141
12.0
290
     0
  0
TABLESTYLE
  5
F7E
102
{ACAD_REACTORS
330
F7D
102
}
102
{ACAD_XDICTIONARY
360
FF6
102
}
330
F7D
100
AcDbTableStyle
  3
Standard
 70
     0
 71
     0
 40
0.06
 41
0.06
280
     0
281
     0
  7
Standard
140
0.18
170
     2
 62
     0
 63
   257
283
     0
 90
        4
 91
        0
  1

274
    -2
284
     1
 64
     0
275
    -2
285
     1
 65
     0
276
    -2
286
     1
 66
     0
277
    -2
287
     1
 67
     0
278
    -2
288
     1
 68
     0
279
    -2
289
     1
 69
     0
  7
Standard
140
0.25
170
     5
 62
     0
 63
   257
283
     0
 90
        4
 91
        0
  1

274
    -2
284
     1
 64
     0
275
    -2
285
     1
 65
     0
276
    -2
286
     1
 66
     0
277
    -2
287
     1
 67
     0
278
    -2
288
     1
 68
     0
279
    -2
289
     1
 69
     0
  7
Standard
140
0.18
170
     5
 62
     0
 63
   257
283
     0
 90
        4
 91
        0
  1

274
    -2
284
     1
 64
     0
275
    -2
285
     1
 65
     0
276
    -2
286
     1
 66
     0
277
    -2
287
     1
 67
     0
278
    -2
288
     1
 68
     0
279
    -2
289
     1
 69
     0
  0
VISUALSTYLE
  5
F43
102
{ACAD_REACTORS
330
F3E
102
}
330
F3E
100
AcDbVisualStyle
  2
2dWireframe
 70
     4
177
     3
291
     0
 70
    58
 90
        0
176
     1
 90
        2
176
     1
 90
        0
176
     1
 90
        0
176
     1
 40
0.6
176
     1
 40
30.0
176
     1
 62
     7
420
 16777215
176
     1
 90
        1
176
     1
 90
        4
176
     1
 62
     7
176
     1
 62
   257
176
     1
 90
        1
176
     1
 90
        1
176
     1
 40
1.0
176
     1
 90
        0
176
     1
 62
   257
176
     1
 40
1.0
176
     1
 90
        1
176
     1
 90
        6
176
     1
 90
        2
176
     1
 62
     7
176
     1
 90
        5
176
     1
 90
        0
176
     1
 90
        0
176
     1
290
     0
176
     1
 90
        1
176
     1
 40
0.0
176
     1
 90
        0
176
     1
290
     1
176
     1
290
     1
176
     1
290
     0
176
     1
290
     0
176
     1
290
     0
176
     1
290
     0
176
     1
290
     0
176
     1
290
     0
176
     1
290
     0
176
     1
 90
       50
176
     1
 40
0.0
176
     1
 40
1.0
176
     1
 90
        0
176
     1
 62
   178
420
        0
176
     1
 90
       50
176
     1
 90
        3
176
     1
 62
     5
420
      255
176
     1
290
     0
176
     1
 90
       50
176
     1
 90
       50
176
     1
 90
       50
176
     1
290
     0
176
     1
 90
       50
176
     1
 62
   256
176
     0
 40
1.0
176
     0
 90
        2
176
     1
  1
strokes_ogs.tif
176
     1
290
     0
176
     1
 40
1.0
176
     1
 40
1.0
176
     1
  0
VISUALSTYLE
  5
F46
102
{ACAD_REACTORS
330
F3E
102
}
330
F3E
100
AcDbVisualStyle
  2
Basic
 70
     7
177
     3
291
     1
 70
    58
 90
        1
176
     1
 90
        0
176
     1
 90
        1
176
     1
 90
        0
176
     1
 40
0.6
176
     1
 40
30.0
176
     1
 62
     7
420
 16777215
176
     1
 90
        0
176
     1
 90
        4
176
     1
 62
     7
176
     1
 62
   257
176
     1
 90
        1
176
     1
 90
        1
176
     1
 40
1.0
176
     1
 90
        8
176
     1
 62
     7
176
     1
 40
1.0
176
     1
 90
        1
176
     1
 90
        6
176
     1
 90
        2
176
     1
 62
     7
176
     1
 90
        5
176
     1
 90
        0
176
     1
 90
        0
176
     1
290
     0
176
     1
 90
        1
176
     1
 40
0.0
176
     1
 90
        0
176
     1
290
     0
176
     1
290
     1
176
     1
290
     1
176
     1
290
     0
176
     1
290
     0
176
     1
290
     0
176
     1
290
     0
176
     1
290
     0
176
     1
290
     0
176
     1
 90
       50
176
     1
 40
0.0
176
     1
 40
1.0
176
     1
 90
        0
176
     1
 62
   178
420
        0
176
     1
 90
       50
176
     1
 90
        3
176
     1
 62
     5
420
      255
176
     1
290
     0
176
     1
 90
       50
176
     1
 90
       50
176
     1
 90
       50
176
     1
290
     0
176
     1
 90
       50
176
     1
 62
   256
176
     0
 40
1.0
176
     0
 90
        2
176
     1
  1
strokes_ogs.tif
176
     1
290
     0
176
     1
 40
1.0
176
     1
 40
1.0
176
     1
  0
VISUALSTYLE
  5
F4A
102
{ACAD_REACTORS
330
F3E
102
}
330
F3E
100
AcDbVisualStyle
  2
Brighten
 70
    12
177
     3
291
     1
 70
    58
 90
        2
176
     1
 90
        2
176
     1
 90
        0
176
     1
 90
        0
176
     1
 40
0.6
176
     1
 40
30.0
176
     1
 62
     7
420
 16777215
176
     1
 90
        1
176
     1
 90
        4
176
     1
 62
     7
176
     1
 62
   257
176
     1
 90
        1
176
     1
 90
        1
176
     1
 40
1.0
176
     1
 90
        8
176
     1
 62
     7
176
     1
 40
1.0
176
     1
 90
        1
176
     1
 90
        6
176
     1
 90
        2
176
     1
 62
     7
176
     1
 90
        5
176
     1
 90
        0
176
     1
 90
        0
176
     1
290
     0
176
     1
 90
        1
176
     1
 40
50.0
176
     1
 90
        0
176
     1
290
     0
176
     1
290
     1
176
     1
290
     1
176
     1
290
     0
176
     1
290
     0
176
     1
290
     0
176
     1
290
     0
176
     1
290
     0
176
     1
290
     0
176
     1
 90
       50
176
     1
 40
0.0
176
     1
 40
1.0
176
     1
 90
        0
176
     1
 62
   178
420
        0
176
     1
 90
       50
176
     1
 90
        3
176
     1
 62
     5
420
      255
176
     1
290
     0
176
     1
 90
       50
176
     1
 90
       50
176
     1
 90
       50
176
     1
290
     0
176
     1
 90
       50
176
     1
 62
   256
176
     0
 40
1.0
176
     0
 90
        2
176
     1
  1
strokes_ogs.tif
176
     1
290
     0
176
     1
 40
1.0
176
     1
 40
1.0
176
     1
  0
VISUALSTYLE
  5
F4E
102
{ACAD_REACTORS
330
F3E
102
}
330
F3E
100
AcDbVisualStyle
  2
ColorChange
 70
    16
177
     3
291
     1
 70
    58
 90
        2
176
     1
 90
        2
176
     1
 90
        3
176
     1
 90
        0
176
     1
 40
0.6
176
     1
 40
30.0
176
     1
 62
     8
420
  8421504
176
     1
 90
        1
176
     1
 90
        4
176
     1
 62
     7
176
     1
 62
   257
176
     1
 90
        1
176
     1
 90
        1
176
     1
 40
1.0
176
     1
 90
        8
176
     1
 62
     8
420
  8421504
176
     1
 40
1.0
176
     1
 90
        1
176
     1
 90
        6
176
     1
 90
        2
176
     1
 62
     7
176
     1
 90
        5
176
     1
 90
        0
176
     1
 90
        0
176
     1
290
     0
176
     1
 90
        1
176
     1
 40
0.0
176
     1
 90
        0
176
     1
290
     0
176
     1
290
     1
176
     1
290
     1
176
     1
290
     0
176
     1
290
     0
176
     1
290
     0
176
     1
290
     0
176
     1
290
     0
176
     1
290
     0
176
     1
 90
       50
176
     1
 40
0.0
176
     1
 40
1.0
176
     1
 90
        0
176
     1
 62
   178
420
        0
176
     1
 90
       50
176
     1
 90
        3
176
     1
 62
     5
420
      255
176
     1
290
     0
176
     1
 90
       50
176
     1
 90
       50
176
     1
 90
       50
176
     1
290
     0
176
     1
 90
       50
176
     1
 62
   256
176
     0
 40
1.0
176
     0
 90
        2
176
     1
  1
strokes_ogs.tif
176
     1
290
     0
176
     1
 40
1.0
176
     1
 40
1.0
176
     1
  0
VISUALSTYLE
  5
F48
102
{ACAD_REACTORS
330
F3E
102
}
330
F3E
100
AcDbVisualStyle
  2
Conceptual
 70
     9
177
     3
291
     0
 70
    58
 90
        3
176
     1
 90
        2
176
     1
 90
        0
176
     1
 90
        0
176
     1
 40
0.6
176
     1
 40
30.0
176
     1
 62
     7
420
 16777215
176
     1
 90
        2
176
     1
 90
        2
176
     1
 62
     7
176
     1
 62
   257
176
     1
 90
        1
176
     1
 90
        1
176
     1
 40
179.0
176
     1
 90
        8
176
     1
 62
     7
176
     1
 40
1.0
176
     1
 90
        1
176
     1
 90
        6
176
     1
 90
        2
176
     1
 62
     7
176
     1
 90
        3
176
     1
 90
        0
176
     1
 90
        0
176
     1
290
     0
176
     1
 90
        1
176
     1
 40
0.0
176
     1
 90
        0
176
     1
290
     0
176
     1
290
     1
176
     1
290
     1
176
     1
290
     0
176
     1
290
     0
176
     1
290
     0
176
     1
290
     0
176
     1
290
     0
176
     1
290
     0
176
     1
 90
       50
176
     1
 40
0.0
176
     1
 40
1.0
176
     1
 90
        0
176
     1
 62
   178
420
        0
176
     1
 90
       50
176
     1
 90
        3
176
     1
 62
     5
420
      255
176
     1
290
     0
176
     1
 90
       50
176
     1
 90
       50
176
     1
 90
       50
176
     1
290
     0
176
     1
 90
       50
176
     1
 62
   256
176
     0
 40
1.0
176
     0
 90
        2
176
     1
  1
strokes_ogs.tif
176
     1
290
     0
176
     1
 40
1.0
176
     1
 40
1.0
176
     1
  0
VISUALSTYLE
  5
F49
102
{ACAD_REACTORS
330
F3E
102
}
330
F3E
100
AcDbVisualStyle
  2
Dim
 70
    11
177
     3
291
     1
 70
    58
 90
        2
176
     1
 90
        2
176
     1
 90
        0
176
     1
 90
        0
176
     1
 40
0.6
176
     1
 40
30.0
176
     1
 62
     7
420
 16777215
176
     1
 90
        1
176
     1
 90
        4
176
     1
 62
     7
176
     1
 62
   257
176
     1
 90
        1
176
     1
 90
        1
176
     1
 40
1.0
176
     1
 90
        8
176
     1
 62
     7
176
     1
 40
1.0
176
     1
 90
        1
176
     1
 90
        6
176
     1
 90
        2
176
     1
 62
     7
176
     1
 90
        5
176
     1
 90
        0
176
     1
 90
        0
176
     1
290
     0
176
     1
 90
        1
176
     1
 40
-50.0
176
     1
 90
        0
176
     1
290
     0
176
     1
290
     1
176
     1
290
     1
176
     1
290
     0
176
     1
290
     0
176
     1
290
     0
176
     1
290
     0
176
     1
290
     0
176
     1
290
     0
176
     1
 90
       50
176
     1
 40
0.0
176
     1
 40
1.0
176
     1
 90
        0
176
     1
 62
   178
420
        0
176
     1
 90
       50
176
     1
 90
        3
176
     1
 62
     5
420
      255
176
     1
290
     0
176
     1
 90
       50
176
     1
 90
       50
176
     1
 90
       50
176
     1
290
     0
176
     1
 90
       50
176
     1
 62
   256
176
     0
 40
1.0
176
     0
 90
        2
176
     1
  1
strokes_ogs.tif
176
     1
290
     0
176
     1
 40
1.0
176
     1
 40
1.0
176
     1
  0
VISUALSTYLE
  5
F51
102
{ACAD_REACTORS
330
F3E
102
}
330
F3E
100
AcDbVisualStyle
  2
EdgeColorOff
 70
    22
177
     3
291
     1
 70
    58
 90
        2
176
     0
 90
        2
176
     0
 90
        0
176
     0
 90
        0
176
     0
 40
0.6
176
     0
 40
30.0
176
     0
 62
     7
420
 16777215
176
     0
 90
        1
176
     0
 90
        4
176
     0
 62
     7
176
     0
 62
   257
176
     0
 90
        1
176
     0
 90
        1
176
     0
 40
1.0
176
     0
 90
        8
176
     2
 62
     7
176
     0
 40
1.0
176
     0
 90
        1
176
     0
 90
        6
176
     0
 90
        2
176
     0
 62
     7
176
     0
 90
        5
176
     0
 90
        0
176
     0
 90
        0
176
     0
290
     0
176
     0
 90
        1
176
     0
 40
0.0
176
     0
 90
        0
176
     0
290
     0
176
     0
290
     1
176
     0
290
     1
176
     0
290
     0
176
     0
290
     0
176
     0
290
     0
176
     0
290
     0
176
     0
290
     0
176
     0
290
     0
176
     0
 90
       50
176
     0
 40
0.0
176
     0
 40
1.0
176
     0
 90
        0
176
     0
 62
   178
420
        0
176
     0
 90
       50
176
     0
 90
        3
176
     0
 62
     5
420
      255
176
     0
290
     0
176
     0
 90
       50
176
     0
 90
       50
176
     0
 90
       50
176
     0
290
     0
176
     0
 90
       50
176
     0
 62
   256
176
     0
 40
1.0
176
     0
 90
        2
176
     0
  1
strokes_ogs.tif
176
     0
290
     0
176
     0
 40
1.0
176
     0
 40
1.0
176
     0
  0
VISUALSTYLE
  5
F4D
102
{ACAD_REACTORS
330
F3E
102
}
330
F3E
100
AcDbVisualStyle
  2
Facepattern
 70
    15
177
     3
291
     1
 70
    58
 90
        2
176
     1
 90
        2
176
     1
 90
        0
176
     1
 90
        0
176
     1
 40
0.6
176
     1
 40
30.0
176
     1
 62
     7
420
 16777215
176
     1
 90
        1
176
     1
 90
        4
176
     1
 62
     7
176
     1
 62
   257
176
     1
 90
        1
176
     1
 90
        1
176
     1
 40
1.0
176
     1
 90
        8
176
     1
 62
     7
176
     1
 40
1.0
176
     1
 90
        1
176
     1
 90
        6
176
     1
 90
        2
176
     1
 62
     7
176
     1
 90
        5
176
     1
 90
        0
176
     1
 90
        0
176
     1
290
     0
176
     1
 90
        1
176
     1
 40
0.0
176
     1
 90
        0
176
     1
290
     0
176
     1
290
     1
176
     1
290
     1
176
     1
290
     0
176
     1
290
     0
176
     1
290
     0
176
     1
290
     0
176
     1
290
     0
176
     1
290
     0
176
     1
 90
       50
176
     1
 40
0.0
176
     1
 40
1.0
176
     1
 90
        0
176
     1
 62
   178
420
        0
176
     1
 90
       50
176
     1
 90
        3
176
     1
 62
     5
420
      255
176
     1
290
     0
176
     1
 90
       50
176
     1
 90
       50
176
     1
 90
       50
176
     1
290
     0
176
     1
 90
       50
176
     1
 62
   256
176
     0
 40
1.0
176
     0
 90
        2
176
     1
  1
strokes_ogs.tif
176
     1
290
     0
176
     1
 40
1.0
176
     1
 40
1.0
176
     1
  0
VISUALSTYLE
  5
F3F
102
{ACAD_REACTORS
330
F3E
102
}
330
F3E
100
AcDbVisualStyle
  2
Flat
 70
     0
177
     3
291
     1
 70
    58
 90
        2
176
     1
 90
        1
176
     1
 90
        1
176
     1
 90
        2
176
     1
 40
0.6
176
     1
 40
30.0
176
     1
 62
     7
420
 16777215
176
     1
 90
        0
176
     1
 90
        0
176
     1
 62
     7
176
     1
 62
   257
176
     1
 90
        1
176
     1
 90
        1
176
     1
 40
1.0
176
     1
 90
        8
176
     1
 62
     7
176
     1
 40
1.0
176
     1
 90
        1
176
     1
 90
        6
176
     1
 90
        2
176
     1
 62
     7
176
     1
 90
        5
176
     1
 90
        0
176
     1
 90
        0
176
     1
290
     0
176
     1
 90
       13
176
     1
 40
0.0
176
     1
 90
        0
176
     1
290
     0
176
     1
290
     1
176
     1
290
     1
176
     1
290
     0
176
     1
290
     0
176
     1
290
     0
176
     1
290
     0
176
     1
290
     0
176
     1
290
     0
176
     1
 90
       50
176
     1
 40
0.0
176
     1
 40
1.0
176
     1
 90
        0
176
     1
 62
   178
420
        0
176
     1
 90
       50
176
     1
 90
        3
176
     1
 62
     5
420
      255
176
     1
290
     0
176
     1
 90
       50
176
     1
 90
       50
176
     1
 90
       50
176
     1
290
     0
176
     1
 90
       50
176
     1
 62
   256
176
     0
 40
1.0
176
     0
 90
        2
176
     1
  1
strokes_ogs.tif
176
     1
290
     0
176
     1
 40
1.0
176
     1
 40
1.0
176
     1
  0
VISUALSTYLE
  5
F40
102
{ACAD_REACTORS
330
F3E
102
}
330
F3E
100
AcDbVisualStyle
  2
FlatWithEdges
 70
     1
177
     3
291
     1
 70
    58
 90
        2
176
     1
 90
        1
176
     1
 90
        1
176
     1
 90
        2
176
     1
 40
0.6
176
     1
 40
30.0
176
     1
 62
     7
420
 16777215
176
     1
 90
        1
176
     1
 90
        0
176
     1
 62
     7
176
     1
 62
   257
176
     1
 90
        1
176
     1
 90
        1
176
     1
 40
1.0
176
     1
 90
        0
176
     1
 62
   257
176
     1
 40
1.0
176
     1
 90
        1
176
     1
 90
        6
176
     1
 90
        2
176
     1
 62
     7
176
     1
 90
        5
176
     1
 90
        0
176
     1
 90
        0
176
     1
290
     0
176
     1
 90
       13
176
     1
 40
0.0
176
     1
 90
        0
176
     1
290
     0
176
     1
290
     1
176
     1
290
     1
176
     1
290
     0
176
     1
290
     0
176
     1
290
     0
176
     1
290
     0
176
     1
290
     0
176
     1
290
     0
176
     1
 90
       50
176
     1
 40
0.0
176
     1
 40
1.0
176
     1
 90
        0
176
     1
 62
   178
420
        0
176
     1
 90
       50
176
     1
 90
        3
176
     1
 62
     5
420
      255
176
     1
290
     0
176
     1
 90
       50
176
     1
 90
       50
176
     1
 90
       50
176
     1
290
     0
176
     1
 90
       50
176
     1
 62
   256
176
     0
 40
1.0
176
     0
 90
        2
176
     1
  1
strokes_ogs.tif
176
     1
290
     0
176
     1
 40
1.0
176
     1
 40
1.0
176
     1
  0
VISUALSTYLE
  5
F41
102
{ACAD_REACTORS
330
F3E
102
}
330
F3E
100
AcDbVisualStyle
  2
Gouraud
 70
     2
177
     3
291
     1
 70
    58
 90
        2
176
     1
 90
        2
176
     1
 90
        1
176
     1
 90
        2
176
     1
 40
0.6
176
     1
 40
30.0
176
     1
 62
     7
420
 16777215
176
     1
 90
        0
176
     1
 90
        0
176
     1
 62
     7
176
     1
 62
   257
176
     1
 90
        1
176
     1
 90
        1
176
     1
 40
1.0
176
     1
 90
        0
176
     1
 62
     7
176
     1
 40
1.0
176
     1
 90
        1
176
     1
 90
        6
176
     1
 90
        2
176
     1
 62
     7
176
     1
 90
        5
176
     1
 90
        0
176
     1
 90
        0
176
     1
290
     0
176
     1
 90
       13
176
     1
 40
0.0
176
     1
 90
        0
176
     1
290
     0
176
     1
290
     1
176
     1
290
     1
176
     1
290
     0
176
     1
290
     0
176
     1
290
     0
176
     1
290
     0
176
     1
290
     0
176
     1
290
     0
176
     1
 90
       50
176
     1
 40
0.0
176
     1
 40
1.0
176
     1
 90
        0
176
     1
 62
   178
420
        0
176
     1
 90
       50
176
     1
 90
        3
176
     1
 62
     5
420
      255
176
     1
290
     0
176
     1
 90
       50
176
     1
 90
       50
176
     1
 90
       50
176
     1
290
     0
176
     1
 90
       50
176
     1
 62
   256
176
     0
 40
1.0
176
     0
 90
        2
176
     1
  1
strokes_ogs.tif
176
     1
290
     0
176
     1
 40
1.0
176
     1
 40
1.0
176
     1
  0
VISUALSTYLE
  5
F42
102
{ACAD_REACTORS
330
F3E
102
}
330
F3E
100
AcDbVisualStyle
  2
GouraudWithEdges
 70
     3
177
     3
291
     1
 70
    58
 90
        2
176
     1
 90
        2
176
     1
 90
        1
176
     1
 90
        2
176
     1
 40
0.6
176
     1
 40
30.0
176
     1
 62
     7
420
 16777215
176
     1
 90
        1
176
     1
 90
        0
176
     1
 62
     7
176
     1
 62
   257
176
     1
 90
        1
176
     1
 90
        1
176
     1
 40
1.0
176
     1
 90
        0
176
     1
 62
   257
176
     1
 40
1.0
176
     1
 90
        1
176
     1
 90
        6
176
     1
 90
        2
176
     1
 62
     7
176
     1
 90
        5
176
     1
 90
        0
176
     1
 90
        0
176
     1
290
     0
176
     1
 90
       13
176
     1
 40
0.0
176
     1
 90
        0
176
     1
290
     0
176
     1
290
     1
176
     1
290
     1
176
     1
290
     0
176
     1
290
     0
176
     1
290
     0
176
     1
290
     0
176
     1
290
     0
176
     1
290
     0
176
     1
 90
       50
176
     1
 40
0.0
176
     1
 40
1.0
176
     1
 90
        0
176
     1
 62
   178
420
        0
176
     1
 90
       50
176
     1
 90
        3
176
     1
 62
     5
420
      255
176
     1
290
     0
176
     1
 90
       50
176
     1
 90
       50
176
     1
 90
       50
176
     1
290
     0
176
     1
 90
       50
176
     1
 62
   256
176
     0
 40
1.0
176
     0
 90
        2
176
     1
  1
strokes_ogs.tif
176
     1
290
     0
176
     1
 40
1.0
176
     1
 40
1.0
176
     1
  0
VISUALSTYLE
  5
F45
102
{ACAD_REACTORS
330
F3E
102
}
330
F3E
100
AcDbVisualStyle
  2
Hidden
 70
     6
177
     3
291
     0
 70
    58
 90
        1
176
     1
 90
        2
176
     1
 90
        2
176
     1
 90
        0
176
     1
 40
0.6
176
     1
 40
30.0
176
     1
 62
     7
420
 16777215
176
     1
 90
        2
176
     1
 90
        2
176
     1
 62
     7
176
     1
 62
   257
176
     1
 90
        2
176
     1
 90
        1
176
     1
 40
40.0
176
     1
 90
        0
176
     1
 62
   257
176
     1
 40
1.0
176
     1
 90
        1
176
     1
 90
        6
176
     1
 90
        2
176
     1
 62
     7
176
     1
 90
        3
176
     1
 90
        0
176
     1
 90
        0
176
     1
290
     0
176
     1
 90
        1
176
     1
 40
0.0
176
     1
 90
        0
176
     1
290
     0
176
     1
290
     1
176
     1
290
     1
176
     1
290
     0
176
     1
290
     0
176
     1
290
     0
176
     1
290
     0
176
     1
290
     0
176
     1
290
     0
176
     1
 90
       50
176
     1
 40
0.0
176
     1
 40
1.0
176
     1
 90
        0
176
     1
 62
   178
420
        0
176
     1
 90
       50
176
     1
 90
        3
176
     1
 62
     5
420
      255
176
     1
290
     0
176
     1
 90
       50
176
     1
 90
       50
176
     1
 90
       50
176
     1
290
     0
176
     1
 90
       50
176
     1
 62
   256
176
     0
 40
1.0
176
     0
 90
        2
176
     1
  1
strokes_ogs.tif
176
     1
290
     0
176
     1
 40
1.0
176
     1
 40
1.0
176
     1
  0
VISUALSTYLE
  5
F4F
102
{ACAD_REACTORS
330
F3E
102
}
330
F3E
100
AcDbVisualStyle
  2
JitterOff
 70
    20
177
     3
291
     1
 70
    58
 90
        2
176
     0
 90
        2
176
     0
 90
        0
176
     0
 90
        0
176
     0
 40
0.6
176
     0
 40
30.0
176
     0
 62
     7
420
 16777215
176
     0
 90
        1
176
     0
 90
        4
176
     0
 62
     7
176
     0
 62
   257
176
     0
 90
        1
176
     0
 90
        1
176
     0
 40
1.0
176
     0
 90
       10
176
     2
 62
     7
176
     0
 40
1.0
176
     0
 90
        1
176
     0
 90
        6
176
     0
 90
        2
176
     0
 62
     7
176
     0
 90
        5
176
     0
 90
        0
176
     0
 90
        0
176
     0
290
     0
176
     0
 90
        1
176
     0
 40
0.0
176
     0
 90
        0
176
     0
290
     0
176
     0
290
     1
176
     0
290
     1
176
     0
290
     0
176
     0
290
     0
176
     0
290
     0
176
     0
290
     0
176
     0
290
     0
176
     0
290
     0
176
     0
 90
       50
176
     0
 40
0.0
176
     0
 40
1.0
176
     0
 90
        0
176
     0
 62
   178
420
        0
176
     0
 90
       50
176
     0
 90
        3
176
     0
 62
     5
420
      255
176
     0
290
     0
176
     0
 90
       50
176
     0
 90
       50
176
     0
 90
       50
176
     0
290
     0
176
     0
 90
       50
176
     0
 62
   256
176
     0
 40
1.0
176
     0
 90
        2
176
     0
  1
strokes_ogs.tif
176
     0
290
     0
176
     0
 40
1.0
176
     0
 40
1.0
176
     0
  0
VISUALSTYLE
  5
F4C
102
{ACAD_REACTORS
330
F3E
102
}
330
F3E
100
AcDbVisualStyle
  2
Linepattern
 70
    14
177
     3
291
     1
 70
    58
 90
        2
176
     1
 90
        2
176
     1
 90
        0
176
     1
 90
        0
176
     1
 40
0.6
176
     1
 40
30.0
176
     1
 62
     7
420
 16777215
176
     1
 90
        1
176
     1
 90
        4
176
     1
 62
     7
176
     1
 62
   257
176
     1
 90
        7
176
     1
 90
        7
176
     1
 40
1.0
176
     1
 90
        8
176
     1
 62
     7
176
     1
 40
1.0
176
     1
 90
        1
176
     1
 90
        6
176
     1
 90
        2
176
     1
 62
     7
176
     1
 90
        5
176
     1
 90
        0
176
     1
 90
        0
176
     1
290
     0
176
     1
 90
        1
176
     1
 40
0.0
176
     1
 90
        0
176
     1
290
     0
176
     1
290
     1
176
     1
290
     1
176
     1
290
     0
176
     1
290
     0
176
     1
290
     0
176
     1
290
     0
176
     1
290
     0
176
     1
290
     0
176
     1
 90
       50
176
     1
 40
0.0
176
     1
 40
1.0
176
     1
 90
        0
176
     1
 62
   178
420
        0
176
     1
 90
       50
176
     1
 90
        3
176
     1
 62
     5
420
      255
176
     1
290
     0
176
     1
 90
       50
176
     1
 90
       50
176
     1
 90
       50
176
     1
290
     0
176
     1
 90
       50
176
     1
 62
   256
176
     0
 40
1.0
176
     0
 90
        2
176
     1
  1
strokes_ogs.tif
176
     1
290
     0
176
     1
 40
1.0
176
     1
 40
1.0
176
     1
  0
VISUALSTYLE
  5
F50
102
{ACAD_REACTORS
330
F3E
102
}
330
F3E
100
AcDbVisualStyle
  2
OverhangOff
 70
    21
177
     3
291
     1
 70
    58
 90
        2
176
     0
 90
        2
176
     0
 90
        0
176
     0
 90
        0
176
     0
 40
0.6
176
     0
 40
30.0
176
     0
 62
     7
420
 16777215
176
     0
 90
        1
176
     0
 90
        4
176
     0
 62
     7
176
     0
 62
   257
176
     0
 90
        1
176
     0
 90
        1
176
     0
 40
1.0
176
     0
 90
        9
176
     2
 62
     7
176
     0
 40
1.0
176
     0
 90
        1
176
     0
 90
        6
176
     0
 90
        2
176
     0
 62
     7
176
     0
 90
        5
176
     0
 90
        0
176
     0
 90
        0
176
     0
290
     0
176
     0
 90
        1
176
     0
 40
0.0
176
     0
 90
        0
176
     0
290
     0
176
     0
290
     1
176
     0
290
     1
176
     0
290
     0
176
     0
290
     0
176
     0
290
     0
176
     0
290
     0
176
     0
290
     0
176
     0
290
     0
176
     0
 90
       50
176
     0
 40
0.0
176
     0
 40
1.0
176
     0
 90
        0
176
     0
 62
   178
420
        0
176
     0
 90
       50
176
     0
 90
        3
176
     0
 62
     5
420
      255
176
     0
290
     0
176
     0
 90
       50
176
     0
 90
       50
176
     0
 90
       50
176
     0
290
     0
176
     0
 90
       50
176
     0
 62
   256
176
     0
 40
1.0
176
     0
 90
        2
176
     0
  1
strokes_ogs.tif
176
     0
290
     0
176
     0
 40
1.0
176
     0
 40
1.0
176
     0
  0
VISUALSTYLE
  5
F47
102
{ACAD_REACTORS
330
F3E
102
}
330
F3E
100
AcDbVisualStyle
  2
Realistic
 70
     8
177
     3
291
     0
 70
    58
 90
        2
176
     1
 90
        3
176
     1
 90
        0
176
     1
 90
        2
176
     1
 40
0.6
176
     1
 40
30.0
176
     1
 62
     7
420
 16777215
176
     1
 90
        0
176
     1
 90
        0
176
     1
 62
     7
176
     1
 62
   257
176
     1
 90
        1
176
     1
 90
        1
176
     1
 40
1.0
176
     1
 90
        8
176
     1
 62
   257
176
     1
 40
1.0
176
     1
 90
        1
176
     1
 90
        6
176
     1
 90
        2
176
     1
 62
     7
176
     1
 90
        3
176
     1
 90
        0
176
     1
 90
        0
176
     1
290
     0
176
     1
 90
       13
176
     1
 40
0.0
176
     1
 90
        0
176
     1
290
     0
176
     1
290
     1
176
     1
290
     1
176
     1
290
     0
176
     1
290
     0
176
     1
290
     0
176
     1
290
     0
176
     1
290
     0
176
     1
290
     0
176
     1
 90
       50
176
     1
 40
0.0
176
     1
 40
1.0
176
     1
 90
        0
176
     1
 62
   178
420
        0
176
     1
 90
       50
176
     1
 90
        3
176
     1
 62
     5
420
      255
176
     1
290
     0
176
     1
 90
       50
176
     1
 90
       50
176
     1
 90
       50
176
     1
290
     0
176
     1
 90
       50
176
     1
 62
   256
176
     0
 40
1.0
176
     0
 90
        2
176
     1
  1
strokes_ogs.tif
176
     1
290
     0
176
     1
 40
1.0
176
     1
 40
1.0
176
     1
  0
VISUALSTYLE
  5
F56
102
{ACAD_REACTORS
330
F3E
102
}
330
F3E
100
AcDbVisualStyle
  2
Shaded
 70
    27
177
     3
291
     0
 70
    58
 90
        2
176
     1
 90
        2
176
     1
 90
        1
176
     1
 90
        2
176
     1
 40
0.6
176
     1
 40
30.0
176
     1
 62
     7
420
 16777215
176
     1
 90
        0
176
     1
 90
        4
176
     1
 62
     7
176
     1
 62
   257
176
     1
 90
        1
176
     1
 90
        1
176
     1
 40
1.0
176
     1
 90
        8
176
     1
 62
   257
176
     1
 40
1.0
176
     1
 90
        1
176
     1
 90
        6
176
     1
 90
        2
176
     1
 62
     8
420
  7895160
176
     1
 90
        3
176
     1
 90
        0
176
     1
 90
        0
176
     1
290
     0
176
     1
 90
        5
176
     1
 40
0.0
176
     1
 90
        0
176
     1
290
     0
176
     1
290
     1
176
     1
290
     1
176
     1
290
     0
176
     1
290
     0
176
     1
290
     0
176
     1
290
     0
176
     1
290
     0
176
     1
290
     0
176
     1
 90
       50
176
     1
 40
0.0
176
     1
 40
1.0
176
     1
 90
        0
176
     1
 62
   178
420
        0
176
     1
 90
       50
176
     1
 90
        3
176
     1
 62
     5
420
      255
176
     1
290
     0
176
     1
 90
       50
176
     1
 90
       50
176
     1
 90
       50
176
     1
290
     0
176
     1
 90
       50
176
     1
 62
   256
176
     0
 40
1.0
176
     0
 90
        2
176
     1
  1
strokes_ogs.tif
176
     1
290
     0
176
     1
 40
1.0
176
     1
 40
1.0
176
     1
  0
VISUALSTYLE
  5
F55
102
{ACAD_REACTORS
330
F3E
102
}
330
F3E
100
AcDbVisualStyle
  2
Shaded with edges
 70
    26
177
     3
291
     0
 70
    58
 90
        2
176
     1
 90
        2
176
     1
 90
        1
176
     1
 90
        2
176
     1
 40
0.6
176
     1
 40
30.0
176
     1
 62
     7
420
 16777215
176
     1
 90
        1
176
     1
 90
       10
176
     1
 62
     7
176
     1
 62
   257
176
     1
 90
        2
176
     1
 90
        1
176
     1
 40
1.0
176
     1
 90
        8
176
     1
 62
   257
176
     1
 40
1.0
176
     1
 90
        1
176
     1
 90
        6
176
     1
 90
        2
176
     1
 62
     7
176
     1
 90
        3
176
     1
 90
        0
176
     1
 90
        0
176
     1
290
     0
176
     1
 90
        5
176
     1
 40
0.0
176
     1
 90
        0
176
     1
290
     0
176
     1
290
     1
176
     1
290
     1
176
     1
290
     0
176
     1
290
     0
176
     1
290
     0
176
     1
290
     0
176
     1
290
     0
176
     1
290
     0
176
     1
 90
       50
176
     1
 40
0.0
176
     1
 40
1.0
176
     1
 90
        0
176
     1
 62
   178
420
        0
176
     1
 90
       50
176
     1
 90
        3
176
     1
 62
     5
420
      255
176
     1
290
     0
176
     1
 90
       50
176
     1
 90
       50
176
     1
 90
       50
176
     1
290
     0
176
     1
 90
       50
176
     1
 62
   256
176
     0
 40
1.0
176
     0
 90
        2
176
     1
  1
strokes_ogs.tif
176
     1
290
     0
176
     1
 40
1.0
176
     1
 40
1.0
176
     1
  0
VISUALSTYLE
  5
F52
102
{ACAD_REACTORS
330
F3E
102
}
330
F3E
100
AcDbVisualStyle
  2
Shades of Gray
 70
    23
177
     3
291
     0
 70
    58
 90
        2
176
     1
 90
        2
176
     1
 90
        3
176
     1
 90
        0
176
     1
 40
0.6
176
     1
 40
30.0
176
     1
 62
     7
420
 16777215
176
     1
 90
        2
176
     1
 90
        2
176
     1
 62
     7
176
     1
 62
     7
176
     1
 90
        1
176
     1
 90
        1
176
     1
 40
40.0
176
     1
 90
        8
176
     1
 62
     7
176
     1
 40
1.0
176
     1
 90
        1
176
     1
 90
        6
176
     1
 90
        2
176
     1
 62
     7
176
     1
 90
        3
176
     1
 90
        0
176
     1
 90
        0
176
     1
290
     0
176
     1
 90
        1
176
     1
 40
0.0
176
     1
 90
        0
176
     1
290
     0
176
     1
290
     1
176
     1
290
     1
176
     1
290
     0
176
     1
290
     0
176
     1
290
     0
176
     1
290
     0
176
     1
290
     0
176
     1
290
     0
176
     1
 90
       50
176
     1
 40
0.0
176
     1
 40
1.0
176
     1
 90
        0
176
     1
 62
   178
420
        0
176
     1
 90
       50
176
     1
 90
        3
176
     1
 62
     5
420
      255
176
     1
290
     0
176
     1
 90
       50
176
     1
 90
       50
176
     1
 90
       50
176
     1
290
     0
176
     1
 90
       50
176
     1
 62
   256
176
     0
 40
1.0
176
     0
 90
        2
176
     1
  1
strokes_ogs.tif
176
     1
290
     0
176
     1
 40
1.0
176
     1
 40
1.0
176
     1
  0
VISUALSTYLE
  5
F53
102
{ACAD_REACTORS
330
F3E
102
}
330
F3E
100
AcDbVisualStyle
  2
Sketchy
 70
    24
177
     3
291
     0
 70
    58
 90
        1
176
     1
 90
        2
176
     1
 90
        2
176
     1
 90
        0
176
     1
 40
0.6
176
     1
 40
30.0
176
     1
 62
     7
420
 16777215
176
     1
 90
        2
176
     1
 90
        2
176
     1
 62
     7
176
     1
 62
     7
176
     1
 90
        1
176
     1
 90
        1
176
     1
 40
40.0
176
     1
 90
       11
176
     1
 62
     7
176
     1
 40
1.0
176
     1
 90
        1
176
     1
 90
        6
176
     1
 90
        2
176
     1
 62
     7
176
     1
 90
        6
176
     1
 90
        0
176
     1
 90
        0
176
     1
290
     0
176
     1
 90
        1
176
     1
 40
0.0
176
     1
 90
        0
176
     1
290
     0
176
     1
290
     1
176
     1
290
     1
176
     1
290
     0
176
     1
290
     0
176
     1
290
     0
176
     1
290
     0
176
     1
290
     0
176
     1
290
     0
176
     1
 90
       50
176
     1
 40
0.0
176
     1
 40
1.0
176
     1
 90
        0
176
     1
 62
   178
420
        0
176
     1
 90
       50
176
     1
 90
        3
176
     1
 62
     5
420
      255
176
     1
290
     0
176
     1
 90
       50
176
     1
 90
       50
176
     1
 90
       50
176
     1
290
     0
176
     1
 90
       50
176
     1
 62
   256
176
     0
 40
1.0
176
     0
 90
        2
176
     1
  1
strokes_ogs.tif
176
     1
290
     0
176
     1
 40
1.0
176
     1
 40
1.0
176
     1
  0
VISUALSTYLE
  5
F4B
102
{ACAD_REACTORS
330
F3E
102
}
330
F3E
100
AcDbVisualStyle
  2
Thicken
 70
    13
177
     3
291
     1
 70
    58
 90
        2
176
     1
 90
        2
176
     1
 90
        0
176
     1
 90
        0
176
     1
 40
0.6
176
     1
 40
30.0
176
     1
 62
     7
420
 16777215
176
     1
 90
        1
176
     1
 90
        4
176
     1
 62
     7
176
     1
 62
   257
176
     1
 90
        1
176
     1
 90
        1
176
     1
 40
1.0
176
     1
 90
       12
176
     1
 62
     7
176
     1
 40
1.0
176
     1
 90
        1
176
     1
 90
        6
176
     1
 90
        2
176
     1
 62
     7
176
     1
 90
        5
176
     1
 90
        0
176
     1
 90
        0
176
     1
290
     0
176
     1
 90
        1
176
     1
 40
0.0
176
     1
 90
        0
176
     1
290
     0
176
     1
290
     1
176
     1
290
     1
176
     1
290
     0
176
     1
290
     0
176
     1
290
     0
176
     1
290
     0
176
     1
290
     0
176
     1
290
     0
176
     1
 90
       50
176
     1
 40
0.0
176
     1
 40
1.0
176
     1
 90
        0
176
     1
 62
   178
420
        0
176
     1
 90
       50
176
     1
 90
        3
176
     1
 62
     5
420
      255
176
     1
290
     0
176
     1
 90
       50
176
     1
 90
       50
176
     1
 90
       50
176
     1
290
     0
176
     1
 90
       50
176
     1
 62
   256
176
     0
 40
1.0
176
     0
 90
        2
176
     1
  1
strokes_ogs.tif
176
     1
290
     0
176
     1
 40
1.0
176
     1
 40
1.0
176
     1
  0
VISUALSTYLE
  5
F44
102
{ACAD_REACTORS
330
F3E
102
}
330
F3E
100
AcDbVisualStyle
  2
Wireframe
 70
     5
177
     3
291
     0
 70
    58
 90
        0
176
     1
 90
        2
176
     1
 90
        0
176
     1
 90
        0
176
     1
 40
0.6
176
     1
 40
30.0
176
     1
 62
     7
420
 16777215
176
     1
 90
        1
176
     1
 90
        4
176
     1
 62
     7
176
     1
 62
   257
176
     1
 90
        1
176
     1
 90
        1
176
     1
 40
1.0
176
     1
 90
        0
176
     1
 62
   257
176
     1
 40
1.0
176
     1
 90
        1
176
     1
 90
        6
176
     1
 90
        2
176
     1
 62
     7
176
     1
 90
        3
176
     1
 90
        0
176
     1
 90
        0
176
     1
290
     0
176
     1
 90
        1
176
     1
 40
0.0
176
     1
 90
        0
176
     1
290
     0
176
     1
290
     1
176
     1
290
     1
176
     1
290
     0
176
     1
290
     0
176
     1
290
     0
176
     1
290
     0
176
     1
290
     0
176
     1
290
     0
176
     1
 90
       50
176
     1
 40
0.0
176
     1
 40
1.0
176
     1
 90
        0
176
     1
 62
   178
420
        0
176
     1
 90
       50
176
     1
 90
        3
176
     1
 62
     5
420
      255
176
     1
290
     0
176
     1
 90
       50
176
     1
 90
       50
176
     1
 90
       50
176
     1
290
     0
176
     1
 90
       50
176
     1
 62
   256
176
     0
 40
1.0
176
     0
 90
        2
176
     1
  1
strokes_ogs.tif
176
     1
290
     0
176
     1
 40
1.0
176
     1
 40
1.0
176
     1
  0
VISUALSTYLE
  5
F54
102
{ACAD_REACTORS
330
F3E
102
}
330
F3E
100
AcDbVisualStyle
  2
X-Ray
 70
    25
177
     3
291
     0
 70
    58
 90
        2
176
     1
 90
        2
176
     1
 90
        1
176
     1
 90
        1
176
     1
 40
0.5
176
     1
 40
30.0
176
     1
 62
     7
420
 16777215
176
     1
 90
        1
176
     1
 90
        0
176
     1
 62
     7
176
     1
 62
   257
176
     1
 90
        1
176
     1
 90
        1
176
     1
 40
1.0
176
     1
 90
        8
176
     1
 62
     7
176
     1
 40
1.0
176
     1
 90
        1
176
     1
 90
        6
176
     1
 90
        2
176
     1
 62
     7
176
     1
 90
        3
176
     1
 90
        0
176
     1
 90
        0
176
     1
290
     0
176
     1
 90
       13
176
     1
 40
0.0
176
     1
 90
        0
176
     1
290
     0
176
     1
290
     1
176
     1
290
     1
176
     1
290
     0
176
     1
290
     0
176
     1
290
     0
176
     1
290
     0
176
     1
290
     0
176
     1
290
     0
176
     1
 90
       50
176
     1
 40
0.0
176
     1
 40
1.0
176
     1
 90
        0
176
     1
 62
   178
420
        0
176
     1
 90
       50
176
     1
 90
        3
176
     1
 62
     5
420
      255
176
     1
290
     0
176
     1
 90
       50
176
     1
 90
       50
176
     1
 90
       50
176
     1
290
     0
176
     1
 90
       50
176
     1
 62
   256
176
     0
 40
1.0
176
     0
 90
        2
176
     1
  1
strokes_ogs.tif
176
     1
290
     0
176
     1
 40
1.0
176
     1
 40
1.0
176
     1
  0
DICTIONARYVAR
  5
FF5
102
{ACAD_REACTORS
330
FF4
102
}
330
FF4
100
DictionaryVariables
280
     0
  1
1:1
  0
DICTIONARYVAR
  5
FFA
102
{ACAD_REACTORS
330
FF4
102
}
330
FF4
100
DictionaryVariables
280
     0
  1
Standard
  0
DICTIONARYVAR
  5
FF9
102
{ACAD_REACTORS
330
FF4
102
}
330
FF4
100
DictionaryVariables
280
     0
  1
Standard
  0
XRECORD
  5
F85
102
{ACAD_REACTORS
330
F83
102
}
330
F83
100
AcDbXrecord
280
     1
1000
#ffffff
  0
XRECORD
  5
F86
102
{ACAD_REACTORS
330
F83
102
}
330
F83
100
AcDbXrecord
280
     1
1000
FullColor
  0
XRECORD
  5
F87
102
{ACAD_REACTORS
330
F83
102
}
330
F83
100
AcDbXrecord
280
     1
290
     1
  0
XRECORD
  5
F88
102
{ACAD_REACTORS
330
F83
102
}
330
F83
100
AcDbXrecord
280
     1
290
     1
  0
XRECORD
  5
F89
102
{ACAD_REACTORS
330
F83
102
}
330
F83
100
AcDbXrecord
280
     1
290
     1
  0
XRECORD
  5
F8A
102
{ACAD_REACTORS
330
F83
102
}
330
F83
100
AcDbXrecord
280
     1
290
     1
  0
XRECORD
  5
F8B
102
{ACAD_REACTORS
330
F83
102
}
330
F83
100
AcDbXrecord
280
     1
1000
1
  0
XRECORD
  5
F8C
102
{ACAD_REACTORS
330
F83
102
}
330
F83
100
AcDbXrecord
280
     1
1000
auto
  0
XRECORD
  5
F8D
102
{ACAD_REACTORS
330
F83
102
}
330
F83
100
AcDbXrecord
280
     1
1000
auto
  0
XRECORD
  5
F8E
102
{ACAD_REACTORS
330
F83
102
}
330
F83
100
AcDbXrecord
280
     1
1000
auto
  0
XRECORD
  5
F8F
102
{ACAD_REACTORS
330
F83
102
}
330
F83
100
AcDbXrecord
280
     1
1000
1
  0
XRECORD
  5
F90
102
{ACAD_REACTORS
330
F83
102
}
330
F83
100
AcDbXrecord
280
     1
1000
auto
  0
XRECORD
  5
F91
102
{ACAD_REACTORS
330
F83
102
}
330
F83
100
AcDbXrecord
280
     1
1000
auto
  0
XRECORD
  5
F92
102
{ACAD_REACTORS
330
F83
102
}
330
F83
100
AcDbXrecord
280
     1
1000
auto
  0
XRECORD
  5
F93
102
{ACAD_REACTORS
330
F83
102
}
330
F83
100
AcDbXrecord
280
     1
290
     0
  0
XRECORD
  5
F94
102
{ACAD_REACTORS
330
F83
102
}
330
F83
100
AcDbXrecord
280
     1
290
     0
  0
XRECORD
  5
F95
102
{ACAD_REACTORS
330
F83
102
}
330
F83
100
AcDbXrecord
280
     1
290
     0
  0
XRECORD
  5
F96
102
{ACAD_REACTORS
330
F83
102
}
330
F83
100
AcDbXrecord
280
     1
290
     0
  0
XRECORD
  5
F97
102
{ACAD_REACTORS
330
F83
102
}
330
F83
100
AcDbXrecord
280
     1
 90
        0
  0
XRECORD
  5
F98
102
{ACAD_REACTORS
330
F83
102
}
330
F83
100
AcDbXrecord
280
     1
 90
        0
  0
XRECORD
  5
F99
102
{ACAD_REACTORS
330
F83
102
}
330
F83
100
AcDbXrecord
280
     1
 90
        0
  0
XRECORD
  5
F9A
102
{ACAD_REACTORS
330
F83
102
}
330
F83
100
AcDbXrecord
280
     1
 90
        0
  0
XRECORD
  5
F9B
102
{ACAD_REACTORS
330
F83
102
}
330
F83
100
AcDbXrecord
280
     1
1000
auto
  0
XRECORD
  5
F9C
102
{ACAD_REACTORS
330
F83
102
}
330
F83
100
AcDbXrecord
280
     1
1000
auto
  0
XRECORD
  5
F9D
102
{ACAD_REACTORS
330
F83
102
}
330
F83
100
AcDbXrecord
280
     1
1000
auto
  0
XRECORD
  5
F9E
102
{ACAD_REACTORS
330
F83
102
}
330
F83
100
AcDbXrecord
280
     1
1000
auto
  0
XRECORD
  5
F9F
102
{ACAD_REACTORS
330
F83
102
}
330
F83
100
AcDbXrecord
280
     1
1000
auto
  0
XRECORD
  5
FA0
102
{ACAD_REACTORS
330
F83
102
}
330
F83
100
AcDbXrecord
280
     1
1000
auto
  0
XRECORD
  5
FA1
102
{ACAD_REACTORS
330
F83
102
}
330
F83
100
AcDbXrecord
280
     1
1000
auto
  0
XRECORD
  5
FA2
102
{ACAD_REACTORS
330
F83
102
}
330
F83
100
AcDbXrecord
280
     1
1000
auto
  0
XRECORD
  5
FA3
102
{ACAD_REACTORS
330
F83
102
}
330
F83
100
AcDbXrecord
280
     1
 90
        1
  0
XRECORD
  5
FA4
102
{ACAD_REACTORS
330
F83
102
}
330
F83
100
AcDbXrecord
280
     1
 40
10.0
  0
XRECORD
  5
FA5
102
{ACAD_REACTORS
330
F83
102
}
330
F83
100
AcDbXrecord
280
     1
 40
10.0
  0
XRECORD
  5
FA6
102
{ACAD_REACTORS
330
F83
102
}
330
F83
100
AcDbXrecord
280
     1
 40
10.0
  0
XRECORD
  5
FA7
102
{ACAD_REACTORS
330
F83
102
}
330
F83
100
AcDbXrecord
280
     1
 40
10.0
  0
XRECORD
  5
FA8
102
{ACAD_REACTORS
330
F83
102
}
330
F83
100
AcDbXrecord
280
     1
290
     0
  0
XRECORD
  5
FA9
102
{ACAD_REACTORS
330
F83
102
}
330
F83
100
AcDbXrecord
280
     1
 90
        1
  0
XRECORD
  5
FAA
102
{ACAD_REACTORS
330
F83
102
}
330
F83
100
AcDbXrecord
280
     1
 40
0.0
  0
XRECORD
  5
FAB
102
{ACAD_REACTORS
330
F83
102
}
330
F83
100
AcDbXrecord
280
     1
 40
0.0
  0
XRECORD
  5
FAC
102
{ACAD_REACTORS
330
F83
102
}
330
F83
100
AcDbXrecord
280
     1
1000
Portrait
  0
XRECORD
  5
FAD
102
{ACAD_REACTORS
330
F83
102
}
330
F83
100
AcDbXrecord
280
     1
 40
297.0
  0
XRECORD
  5
FAE
102
{ACAD_REACTORS
330
F83
102
}
330
F83
100
AcDbXrecord
280
     1
 40
210.0
  0
XRECORD
  5
FAF
102
{ACAD_REACTORS
330
F83
102
}
330
F83
100
AcDbXrecord
280
     1
1000
1:1
  0
XRECORD
  5
FB0
102
{ACAD_REACTORS
330
F83
102
}
330
F83
100
AcDbXrecord
280
     1
290
     1
  0
XRECORD
  5
FB1
102
{ACAD_REACTORS
330
F83
102
}
330
F83
100
AcDbXrecord
280
     1
1000
3.8.1
  0
XRECORD
  5
FB2
102
{ACAD_REACTORS
330
F83
102
}
330
F83
100
AcDbXrecord
280
     1
 90
        4
  0
DICTIONARY
  5
FF6
330
F7E
100
AcDbDictionary
280
     1
281
     1
  3
ACAD_ROUNDTRIP_2008_TABLESTYLE_CELLSTYLEMAP
360
FF7
  0
CELLSTYLEMAP
  5
FF7
102
{ACAD_REACTORS
330
FF6
102
}
330
FF6
100
AcDbCellStyleMap
 90
        3
300
CELLSTYLE
  1
TABLEFORMAT_BEGIN
 90
        5
170
     1
 91
        0
 92
    32768
 62
   257
 93
        1
300
CONTENTFORMAT
  1
CONTENTFORMAT_BEGIN
 90
        0
 91
        0
 92
        4
 93
        0
300

 40
0.0
140
1.0
 94
        5
 62
     0
340
F26
144
0.25
309
CONTENTFORMAT_END
171
     1
301
MARGIN
  1
CELLMARGIN_BEGIN
 40
0.06
 40
0.06
 40
0.06
 40
0.06
 40
0.06
 40
0.06
309
CELLMARGIN_END
 94
        6
 95
        1
302
GRIDFORMAT
  1
GRIDFORMAT_BEGIN
 90
        0
 91
        1
 62
     0
 92
       -2
340
F28
 93
        0
 40
0.045
309
GRIDFORMAT_END
 95
        2
302
GRIDFORMAT
  1
GRIDFORMAT_BEGIN
 90
        0
 91
        1
 62
     0
 92
       -2
340
F28
 93
        0
 40
0.045
309
GRIDFORMAT_END
 95
        4
302
GRIDFORMAT
  1
GRIDFORMAT_BEGIN
 90
        0
 91
        1
 62
     0
 92
       -2
340
F28
 93
        0
 40
0.045
309
GRIDFORMAT_END
 95
        8
302
GRIDFORMAT
  1
GRIDFORMAT_BEGIN
 90
        0
 91
        1
 62
     0
 92
       -2
340
F28
 93
        0
 40
0.045
309
GRIDFORMAT_END
 95
       16
302
GRIDFORMAT
  1
GRIDFORMAT_BEGIN
 90
        0
 91
        1
 62
     0
 92
       -2
340
F28
 93
        0
 40
0.045
309
GRIDFORMAT_END
 95
       32
302
GRIDFORMAT
  1
GRIDFORMAT_BEGIN
 90
        0
 91
        1
 62
     0
 92
       -2
340
F28
 93
        0
 40
0.045
309
GRIDFORMAT_END
309
TABLEFORMAT_END
  1
CELLSTYLE_BEGIN
 90
        1
 91
        1
300
_TITLE
309
CELLSTYLE_END
300
CELLSTYLE
  1
TABLEFORMAT_BEGIN
 90
        5
170
     1
 91
        0
 92
        0
 62
   257
 93
        1
300
CONTENTFORMAT
  1
CONTENTFORMAT_BEGIN
 90
        0
 91
        0
 92
        4
 93
        0
300

 40
0.0
140
1.0
 94
        5
 62
     0
340
F26
144
0.18
309
CONTENTFORMAT_END
171
     1
301
MARGIN
  1
CELLMARGIN_BEGIN
 40
0.06
 40
0.06
 40
0.06
 40
0.06
 40
0.06
 40
0.06
309
CELLMARGIN_END
 94
        6
 95
        1
302
GRIDFORMAT
  1
GRIDFORMAT_BEGIN
 90
        0
 91
        1
 62
     0
 92
       -2
340
F28
 93
        0
 40
0.045
309
GRIDFORMAT_END
 95
        2
302
GRIDFORMAT
  1
GRIDFORMAT_BEGIN
 90
        0
 91
        1
 62
     0
 92
       -2
340
F28
 93
        0
 40
0.045
309
GRIDFORMAT_END
 95
        4
302
GRIDFORMAT
  1
GRIDFORMAT_BEGIN
 90
        0
 91
        1
 62
     0
 92
       -2
340
F28
 93
        0
 40
0.045
309
GRIDFORMAT_END
 95
        8
302
GRIDFORMAT
  1
GRIDFORMAT_BEGIN
 90
        0
 91
        1
 62
     0
 92
       -2
340
F28
 93
        0
 40
0.045
309
GRIDFORMAT_END
 95
       16
302
GRIDFORMAT
  1
GRIDFORMAT_BEGIN
 90
        0
 91
        1
 62
     0
 92
       -2
340
F28
 93
        0
 40
0.045
309
GRIDFORMAT_END
 95
       32
302
GRIDFORMAT
  1
GRIDFORMAT_BEGIN
 90
        0
 91
        1
 62
     0
 92
       -2
340
F28
 93
        0
 40
0.045
309
GRIDFORMAT_END
309
TABLEFORMAT_END
  1
CELLSTYLE_BEGIN
 90
        2
 91
        1
300
_HEADER
309
CELLSTYLE_END
300
CELLSTYLE
  1
TABLEFORMAT_BEGIN
 90
        5
170
     1
 91
        0
 92
        0
 62
   257
 93
        1
300
CONTENTFORMAT
  1
CONTENTFORMAT_BEGIN
 90
        0
 91
        0
 92
        4
 93
        0
300

 40
0.0
140
1.0
 94
        2
 62
     0
340
F26
144
0.18
309
CONTENTFORMAT_END
171
     1
301
MARGIN
  1
CELLMARGIN_BEGIN
 40
0.06
 40
0.06
 40
0.06
 40
0.06
 40
0.06
 40
0.06
309
CELLMARGIN_END
 94
        6
 95
        1
302
GRIDFORMAT
  1
GRIDFORMAT_BEGIN
 90
        0
 91
        1
 62
     0
 92
       -2
340
F28
 93
        0
 40
0.045
309
GRIDFORMAT_END
 95
        2
302
GRIDFORMAT
  1
GRIDFORMAT_BEGIN
 90
        0
 91
        1
 62
     0
 92
       -2
340
F28
 93
        0
 40
0.045
309
GRIDFORMAT_END
 95
        4
302
GRIDFORMAT
  1
GRIDFORMAT_BEGIN
 90
        0
 91
        1
 62
     0
 92
       -2
340
F28
 93
        0
 40
0.045
309
GRIDFORMAT_END
 95
        8
302
GRIDFORMAT
  1
GRIDFORMAT_BEGIN
 90
        0
 91
        1
 62
     0
 92
       -2
340
F28
 93
        0
 40
0.045
309
GRIDFORMAT_END
 95
       16
302
GRIDFORMAT
  1
GRIDFORMAT_BEGIN
 90
        0
 91
        1
 62
     0
 92
       -2
340
F28
 93
        0
 40
0.045
309
GRIDFORMAT_END
 95
       32
302
GRIDFORMAT
  1
GRIDFORMAT_BEGIN
 90
        0
 91
        1
 62
     0
 92
       -2
340
F28
 93
        0
 40
0.045
309
GRIDFORMAT_END
309
TABLEFORMAT_END
  1
CELLSTYLE_BEGIN
 90
        3
 91
        2
300
_DATA
309
CELLSTYLE_END
  0
ENDSEC
  0
EOF
